  0
SECTION
  2
HEADER
  9
$ACADVER
  1
AC1021
  9
$ACADMAINTVER
 70
    25
  9
$DWGCODEPAGE
  3
ANSI_1250
  9
$INSBASE
 10
0.0
 20
0.0
 30
0.0
  9
$EXTMIN
 10
-6.52841
 20
2.82071
 30
0.0
  9
$EXTMAX
 10
4.47159
 20
13.32071
 30
0.0
  9
$LIMMIN
 10
0.0
 20
0.0
  9
$LIMMAX
 10
12.0
 20
9.0
  9
$ORTHOMODE
 70
     0
  9
$REGENMODE
 70
     1
  9
$FILLMODE
 70
     1
  9
$QTEXTMODE
 70
     0
  9
$MIRRTEXT
 70
     1
  9
$LTSCALE
 40
1.0
  9
$ATTMODE
 70
     1
  9
$TEXTSIZE
 40
0.2
  9
$TRACEWID
 40
0.05
  9
$TEXTSTYLE
  7
Standard
  9
$CLAYER
  8
0
  9
$CELTYPE
  6
ByLayer
  9
$CECOLOR
 62
   256
  9
$CELTSCALE
 40
1.0
  9
$DISPSILH
 70
     0
  9
$DIMSCALE
 40
1.0
  9
$DIMASZ
 40
0.18
  9
$DIMEXO
 40
0.0625
  9
$DIMDLI
 40
0.38
  9
$DIMRND
 40
0.0
  9
$DIMDLE
 40
0.0
  9
$DIMEXE
 40
0.18
  9
$DIMTP
 40
0.0
  9
$DIMTM
 40
0.0
  9
$DIMTXT
 40
0.18
  9
$DIMCEN
 40
0.09
  9
$DIMTSZ
 40
0.0
  9
$DIMTOL
 70
     0
  9
$DIMLIM
 70
     0
  9
$DIMTIH
 70
     1
  9
$DIMTOH
 70
     1
  9
$DIMSE1
 70
     0
  9
$DIMSE2
 70
     0
  9
$DIMTAD
 70
     0
  9
$DIMZIN
 70
     0
  9
$DIMBLK
  1

  9
$DIMASO
 70
     1
  9
$DIMSHO
 70
     1
  9
$DIMPOST
  1

  9
$DIMAPOST
  1

  9
$DIMALT
 70
     0
  9
$DIMALTD
 70
     2
  9
$DIMALTF
 40
25.4
  9
$DIMLFAC
 40
1.0
  9
$DIMTOFL
 70
     0
  9
$DIMTVP
 40
0.0
  9
$DIMTIX
 70
     0
  9
$DIMSOXD
 70
     0
  9
$DIMSAH
 70
     0
  9
$DIMBLK1
  1

  9
$DIMBLK2
  1

  9
$DIMSTYLE
  2
Standard
  9
$DIMCLRD
 70
     0
  9
$DIMCLRE
 70
     0
  9
$DIMCLRT
 70
     0
  9
$DIMTFAC
 40
1.0
  9
$DIMGAP
 40
0.09
  9
$DIMJUST
 70
     0
  9
$DIMSD1
 70
     0
  9
$DIMSD2
 70
     0
  9
$DIMTOLJ
 70
     1
  9
$DIMTZIN
 70
     0
  9
$DIMALTZ
 70
     0
  9
$DIMALTTZ
 70
     0
  9
$DIMUPT
 70
     0
  9
$DIMDEC
 70
     4
  9
$DIMTDEC
 70
     4
  9
$DIMALTU
 70
     2
  9
$DIMALTTD
 70
     2
  9
$DIMTXSTY
  7
Standard
  9
$DIMAUNIT
 70
     0
  9
$DIMADEC
 70
     0
  9
$DIMALTRND
 40
0.0
  9
$DIMAZIN
 70
     0
  9
$DIMDSEP
 70
    46
  9
$DIMATFIT
 70
     3
  9
$DIMFRAC
 70
     0
  9
$DIMLDRBLK
  1

  9
$DIMLUNIT
 70
     2
  9
$DIMLWD
 70
    -2
  9
$DIMLWE
 70
    -2
  9
$DIMTMOVE
 70
     0
  9
$DIMFXL
 40
1.0
  9
$DIMFXLON
 70
     0
  9
$DIMJOGANG
 40
0.7853981633974483
  9
$DIMTFILL
 70
     0
  9
$DIMTFILLCLR
 70
     0
  9
$DIMARCSYM
 70
     0
  9
$DIMLTYPE
  6

  9
$DIMLTEX1
  6

  9
$DIMLTEX2
  6

  9
$LUNITS
 70
     2
  9
$LUPREC
 70
     4
  9
$SKETCHINC
 40
0.1
  9
$FILLETRAD
 40
0.5
  9
$AUNITS
 70
     0
  9
$AUPREC
 70
     0
  9
$MENU
  1
.
  9
$ELEVATION
 40
0.0
  9
$PELEVATION
 40
0.0
  9
$THICKNESS
 40
0.0
  9
$LIMCHECK
 70
     0
  9
$CHAMFERA
 40
0.5
  9
$CHAMFERB
 40
0.5
  9
$CHAMFERC
 40
1.0
  9
$CHAMFERD
 40
0.0
  9
$SKPOLY
 70
     0
  9
$TDCREATE
 40
2456286.795014873
  9
$TDUCREATE
 40
2456286.753348206
  9
$TDUPDATE
 40
2456286.795014884
  9
$TDUUPDATE
 40
2456286.753348218
  9
$TDINDWG
 40
0.0000000116
  9
$TDUSRTIMER
 40
0.0000000116
  9
$USRTIMER
 70
     1
  9
$ANGBASE
 50
0.0
  9
$ANGDIR
 70
     0
  9
$PDMODE
 70
     0
  9
$PDSIZE
 40
0.0
  9
$PLINEWID
 40
0.0
  9
$SPLFRAME
 70
     0
  9
$SPLINETYPE
 70
     6
  9
$SPLINESEGS
 70
     8
  9
$HANDSEED
  5
BF
  9
$SURFTAB1
 70
     6
  9
$SURFTAB2
 70
     6
  9
$SURFTYPE
 70
     6
  9
$SURFU
 70
     6
  9
$SURFV
 70
     6
  9
$UCSBASE
  2

  9
$UCSNAME
  2

  9
$UCSORG
 10
0.0
 20
0.0
 30
0.0
  9
$UCSXDIR
 10
1.0
 20
0.0
 30
0.0
  9
$UCSYDIR
 10
0.0
 20
1.0
 30
0.0
  9
$UCSORTHOREF
  2

  9
$UCSORTHOVIEW
 70
     0
  9
$UCSORGTOP
 10
0.0
 20
0.0
 30
0.0
  9
$UCSORGBOTTOM
 10
0.0
 20
0.0
 30
0.0
  9
$UCSORGLEFT
 10
0.0
 20
0.0
 30
0.0
  9
$UCSORGRIGHT
 10
0.0
 20
0.0
 30
0.0
  9
$UCSORGFRONT
 10
0.0
 20
0.0
 30
0.0
  9
$UCSORGBACK
 10
0.0
 20
0.0
 30
0.0
  9
$PUCSBASE
  2

  9
$PUCSNAME
  2

  9
$PUCSORG
 10
0.0
 20
0.0
 30
0.0
  9
$PUCSXDIR
 10
1.0
 20
0.0
 30
0.0
  9
$PUCSYDIR
 10
0.0
 20
1.0
 30
0.0
  9
$PUCSORTHOREF
  2

  9
$PUCSORTHOVIEW
 70
     0
  9
$PUCSORGTOP
 10
0.0
 20
0.0
 30
0.0
  9
$PUCSORGBOTTOM
 10
0.0
 20
0.0
 30
0.0
  9
$PUCSORGLEFT
 10
0.0
 20
0.0
 30
0.0
  9
$PUCSORGRIGHT
 10
0.0
 20
0.0
 30
0.0
  9
$PUCSORGFRONT
 10
0.0
 20
0.0
 30
0.0
  9
$PUCSORGBACK
 10
0.0
 20
0.0
 30
0.0
  9
$USERI1
 70
     0
  9
$USERI2
 70
     0
  9
$USERI3
 70
     0
  9
$USERI4
 70
     0
  9
$USERI5
 70
     0
  9
$USERR1
 40
0.0
  9
$USERR2
 40
0.0
  9
$USERR3
 40
0.0
  9
$USERR4
 40
0.0
  9
$USERR5
 40
0.0
  9
$WORLDVIEW
 70
     1
  9
$SHADEDGE
 70
     3
  9
$SHADEDIF
 70
    70
  9
$TILEMODE
 70
     1
  9
$MAXACTVP
 70
    64
  9
$PINSBASE
 10
0.0
 20
0.0
 30
0.0
  9
$PLIMCHECK
 70
     0
  9
$PEXTMIN
 10
1.000000000000000E+20
 20
1.000000000000000E+20
 30
1.000000000000000E+20
  9
$PEXTMAX
 10
-1.000000000000000E+20
 20
-1.000000000000000E+20
 30
-1.000000000000000E+20
  9
$PLIMMIN
 10
0.0
 20
0.0
  9
$PLIMMAX
 10
12.0
 20
9.0
  9
$UNITMODE
 70
     0
  9
$VISRETAIN
 70
     1
  9
$PLINEGEN
 70
     0
  9
$PSLTSCALE
 70
     1
  9
$TREEDEPTH
 70
  3020
  9
$CMLSTYLE
  2
Standard
  9
$CMLJUST
 70
     0
  9
$CMLSCALE
 40
1.0
  9
$PROXYGRAPHICS
 70
     1
  9
$MEASUREMENT
 70
     0
  9
$CELWEIGHT
370
    -1
  9
$ENDCAPS
280
     0
  9
$JOINSTYLE
280
     0
  9
$LWDISPLAY
290
     0
  9
$INSUNITS
 70
     5
  9
$HYPERLINKBASE
  1

  9
$STYLESHEET
  1

  9
$XEDIT
290
     1
  9
$CEPSNTYPE
380
     0
  9
$PSTYLEMODE
290
     1
  9
$FINGERPRINTGUID
  2
{20AB5C82-FE99-44AD-A23C-F2EF0E091A53}
  9
$VERSIONGUID
  2
{FAEB1C32-E019-11D5-929B-00C0DF256EC4}
  9
$EXTNAMES
290
     1
  9
$PSVPSCALE
 40
0.0
  9
$OLESTARTUP
290
     0
  9
$SORTENTS
280
   127
  9
$INDEXCTL
280
     0
  9
$HIDETEXT
280
     1
  9
$XCLIPFRAME
290
     0
  9
$HALOGAP
280
     0
  9
$OBSCOLOR
 70
   257
  9
$OBSLTYPE
280
     0
  9
$INTERSECTIONDISPLAY
280
     0
  9
$INTERSECTIONCOLOR
 70
   257
  9
$DIMASSOC
280
     2
  9
$PROJECTNAME
  1

  9
$CAMERADISPLAY
290
     0
  9
$LENSLENGTH
 40
50.0
  9
$CAMERAHEIGHT
 40
0.0
  9
$STEPSPERSEC
 40
2.0
  9
$STEPSIZE
 40
6.0
  9
$3DDWFPREC
 40
2.0
  9
$PSOLWIDTH
 40
0.25
  9
$PSOLHEIGHT
 40
4.0
  9
$LOFTANG1
 40
1.570796326794897
  9
$LOFTANG2
 40
1.570796326794897
  9
$LOFTMAG1
 40
0.0
  9
$LOFTMAG2
 40
0.0
  9
$LOFTPARAM
 70
     7
  9
$LOFTNORMALS
280
     1
  9
$LATITUDE
 40
37.795
  9
$LONGITUDE
 40
-122.394
  9
$NORTHDIRECTION
 40
0.0
  9
$TIMEZONE
 70
 -8000
  9
$LIGHTGLYPHDISPLAY
280
     1
  9
$TILEMODELIGHTSYNCH
280
     1
  9
$SOLIDHIST
280
     1
  9
$SHOWHIST
280
     1
  9
$DWFFRAME
280
     2
  9
$DGNFRAME
280
     2
  9
$REALWORLDSCALE
290
     1
  9
$INTERFERECOLOR
 62
   256
  9
$CSHADOW
280
     0
  9
$SHADOWPLANELOCATION
 40
0.0
  0
ENDSEC
  0
SECTION
  2
CLASSES
  0
CLASS
  1
ACDBDICTIONARYWDFLT
  2
AcDbDictionaryWithDefault
  3
ObjectDBX Classes
 90
        0
 91
        3
280
     0
281
     0
  0
CLASS
  1
VISUALSTYLE
  2
AcDbVisualStyle
  3
ObjectDBX Classes
 90
     4095
 91
        3
280
     0
281
     0
  0
CLASS
  1
SCALE
  2
AcDbScale
  3
ObjectDBX Classes
 90
     1153
 91
        3
280
     0
281
     0
  0
ENDSEC
  0
SECTION
  2
TABLES
  0
TABLE
  2
VPORT
  5
8
330
0
100
AcDbSymbolTable
 70
     1
  0
VPORT
  5
29
330
8
100
AcDbSymbolTableRecord
100
AcDbViewportTableRecord
  2
*Active
 70
     0
 10
0.0
 20
0.0
 11
1.0
 21
1.0
 12
10.42990654205607
 22
4.5
 13
0.0
 23
0.0
 14
0.5
 24
0.5
 15
0.5
 25
0.5
 16
0.0
 26
0.0
 36
1.0
 17
0.0
 27
0.0
 37
0.0
 40
9.0
 41
1.972972972850329
 42
50.0
 43
0.0
 44
0.0
 50
0.0
 51
0.0
 71
     0
 72
   100
 73
     1
 74
     3
 75
     0
 76
     0
 77
     0
 78
     0
281
     0
 65
     1
110
0.0
120
0.0
130
0.0
111
1.0
121
0.0
131
0.0
112
0.0
122
1.0
132
0.0
 79
     0
146
0.0
 60
     3
 61
     5
292
     1
282
     1
141
0.0
142
0.0
 63
   256
  0
ENDTAB
  0
TABLE
  2
LTYPE
  5
5
330
0
100
AcDbSymbolTable
 70
     1
  0
LTYPE
  5
14
330
5
100
AcDbSymbolTableRecord
100
AcDbLinetypeTableRecord
  2
ByBlock
 70
     0
  3

 72
    65
 73
     0
 40
0.0
  0
LTYPE
  5
15
330
5
100
AcDbSymbolTableRecord
100
AcDbLinetypeTableRecord
  2
ByLayer
 70
     0
  3

 72
    65
 73
     0
 40
0.0
  0
LTYPE
  5
16
330
5
100
AcDbSymbolTableRecord
100
AcDbLinetypeTableRecord
  2
Continuous
 70
     0
  3
Solid line
 72
    65
 73
     0
 40
0.0
  0
ENDTAB
  0
TABLE
  2
LAYER
  5
2
330
0
100
AcDbSymbolTable
 70
     2
  0
LAYER
  5
10
330
2
100
AcDbSymbolTableRecord
100
AcDbLayerTableRecord
  2
0
 70
     0
 62
     7
  6
Continuous
370
    -3
390
F
347
0
  0
LAYER
  5
5E
330
2
100
AcDbSymbolTableRecord
100
AcDbLayerTableRecord
  2
Warstwa 1
 70
     0
 62
     7
  6
Continuous
370
    -3
390
F
347
0
  0
ENDTAB
  0
TABLE
  2
STYLE
  5
3
330
0
100
AcDbSymbolTable
 70
     1
  0
STYLE
  5
11
330
3
100
AcDbSymbolTableRecord
100
AcDbTextStyleTableRecord
  2
Standard
 70
     0
 40
0.0
 41
1.0
 50
0.0
 71
     0
 42
0.2
  3
txt
  4

  0
ENDTAB
  0
TABLE
  2
VIEW
  5
6
330
0
100
AcDbSymbolTable
 70
     0
  0
ENDTAB
  0
TABLE
  2
UCS
  5
7
330
0
100
AcDbSymbolTable
 70
     0
  0
ENDTAB
  0
TABLE
  2
APPID
  5
9
330
0
100
AcDbSymbolTable
 70
     2
  0
APPID
  5
12
330
9
100
AcDbSymbolTableRecord
100
AcDbRegAppTableRecord
  2
ACAD
 70
     0
  0
APPID
  5
5D
330
9
100
AcDbSymbolTableRecord
100
AcDbRegAppTableRecord
  2
ODA
 70
     0
  0
ENDTAB
  0
TABLE
  2
DIMSTYLE
  5
A
330
0
100
AcDbSymbolTable
 70
     1
100
AcDbDimStyleTable
  0
DIMSTYLE
105
27
330
A
100
AcDbSymbolTableRecord
100
AcDbDimStyleTableRecord
  2
Standard
 70
     0
340
11
  0
ENDTAB
  0
TABLE
  2
BLOCK_RECORD
  5
1
330
0
100
AcDbSymbolTable
 70
     1
  0
BLOCK_RECORD
  5
1F
330
1
100
AcDbSymbolTableRecord
100
AcDbBlockTableRecord
  2
*Model_Space
340
22
 70
     0
280
     1
281
     0
  0
BLOCK_RECORD
  5
1B
330
1
100
AcDbSymbolTableRecord
100
AcDbBlockTableRecord
  2
*Paper_Space
340
1E
 70
     0
280
     1
281
     0
  0
BLOCK_RECORD
  5
23
330
1
100
AcDbSymbolTableRecord
100
AcDbBlockTableRecord
  2
*Paper_Space0
340
26
 70
     0
280
     1
281
     0
  0
ENDTAB
  0
ENDSEC
  0
SECTION
  2
BLOCKS
  0
BLOCK
  5
20
330
1F
100
AcDbEntity
  8
0
100
AcDbBlockBegin
  2
*Model_Space
 70
     0
 10
0.0
 20
0.0
 30
0.0
  3
*Model_Space
  1

  0
ENDBLK
  5
21
330
1F
100
AcDbEntity
  8
0
100
AcDbBlockEnd
  0
BLOCK
  5
1C
330
1B
100
AcDbEntity
 67
     1
  8
0
100
AcDbBlockBegin
  2
*Paper_Space
 70
     0
 10
0.0
 20
0.0
 30
0.0
  3
*Paper_Space
  1

  0
ENDBLK
  5
1D
330
1B
100
AcDbEntity
 67
     1
  8
0
100
AcDbBlockEnd
  0
BLOCK
  5
24
330
23
100
AcDbEntity
  8
0
100
AcDbBlockBegin
  2
*Paper_Space0
 70
     0
 10
0.0
 20
0.0
 30
0.0
  3
*Paper_Space0
  1

  0
ENDBLK
  5
25
330
23
100
AcDbEntity
  8
0
100
AcDbBlockEnd
  0
ENDSEC
  0
SECTION
  2
ENTITIES
  0
SPLINE
  5
5F
330
1F
100
AcDbEntity
  8
Warstwa 1
 62
   250
100
AcDbSpline
210
0.0
220
0.0
230
1.0
 70
    11
 71
     3
 72
    36
 73
    32
 74
     0
 42
0.0000000001
 43
0.0000000001
 40
0.0
 40
0.0
 40
0.0
 40
0.0
 40
0.125
 40
0.125
 40
0.125
 40
0.125
 40
0.25
 40
0.25
 40
0.25
 40
0.25
 40
0.375
 40
0.375
 40
0.375
 40
0.375
 40
0.5
 40
0.5
 40
0.5
 40
0.5
 40
0.625
 40
0.625
 40
0.625
 40
0.625
 40
0.75
 40
0.75
 40
0.75
 40
0.75
 40
0.875
 40
0.875
 40
0.875
 40
0.875
 40
1.0
 40
1.0
 40
1.0
 40
1.0
 10
-2.90676
 20
13.32071
 30
0.0
 10
-2.90676
 20
13.32071
 30
0.0
 10
0.85071
 20
13.32071
 30
0.0
 10
0.85071
 20
13.32071
 30
0.0
 10
0.85071
 20
13.32071
 30
0.0
 10
0.85071
 20
13.32071
 30
0.0
 10
4.47159
 20
10.36618
 30
0.0
 10
4.47159
 20
10.36618
 30
0.0
 10
4.47159
 20
10.36618
 30
0.0
 10
4.47159
 20
10.36618
 30
0.0
 10
4.47159
 20
5.21136
 30
0.0
 10
4.47159
 20
5.21136
 30
0.0
 10
4.47159
 20
5.21136
 30
0.0
 10
4.47159
 20
5.21136
 30
0.0
 10
1.4145
 20
2.82071
 30
0.0
 10
1.4145
 20
2.82071
 30
0.0
 10
1.4145
 20
2.82071
 30
0.0
 10
1.4145
 20
2.82071
 30
0.0
 10
-3.47218
 20
2.82071
 30
0.0
 10
-3.47218
 20
2.82071
 30
0.0
 10
-3.47218
 20
2.82071
 30
0.0
 10
-3.47218
 20
2.82071
 30
0.0
 10
-6.52767
 20
5.20965
 30
0.0
 10
-6.52767
 20
5.20965
 30
0.0
 10
-6.52767
 20
5.20965
 30
0.0
 10
-6.52767
 20
5.20965
 30
0.0
 10
-6.52841
 20
10.36618
 30
0.0
 10
-6.52841
 20
10.36618
 30
0.0
 10
-6.52841
 20
10.36618
 30
0.0
 10
-6.52841
 20
10.36618
 30
0.0
 10
-2.90676
 20
13.32071
 30
0.0
 10
-2.90676
 20
13.32071
 30
0.0
  0
SPLINE
  5
60
330
1F
100
AcDbEntity
  8
Warstwa 1
 62
   250
100
AcDbSpline
210
0.0
220
0.0
230
1.0
 70
    11
 71
     3
 72
    68
 73
    64
 74
     0
 42
0.0000000001
 43
0.0000000001
 40
0.0
 40
0.0
 40
0.0
 40
0.0
 40
0.0625
 40
0.0625
 40
0.0625
 40
0.0625
 40
0.125
 40
0.125
 40
0.125
 40
0.125
 40
0.1875
 40
0.1875
 40
0.1875
 40
0.1875
 40
0.25
 40
0.25
 40
0.25
 40
0.25
 40
0.3125
 40
0.3125
 40
0.3125
 40
0.3125
 40
0.375
 40
0.375
 40
0.375
 40
0.375
 40
0.4375
 40
0.4375
 40
0.4375
 40
0.4375
 40
0.5
 40
0.5
 40
0.5
 40
0.5
 40
0.5625
 40
0.5625
 40
0.5625
 40
0.5625
 40
0.625
 40
0.625
 40
0.625
 40
0.625
 40
0.6875
 40
0.6875
 40
0.6875
 40
0.6875
 40
0.75
 40
0.75
 40
0.75
 40
0.75
 40
0.8125
 40
0.8125
 40
0.8125
 40
0.8125
 40
0.875
 40
0.875
 40
0.875
 40
0.875
 40
0.9375
 40
0.9375
 40
0.9375
 40
0.9375
 40
1.0
 40
1.0
 40
1.0
 40
1.0
 10
1.82893
 20
11.92281
 30
0.0
 10
1.84136
 20
11.93843
 30
0.0
 10
1.85347
 20
11.95416
 30
0.0
 10
1.86524
 20
11.96998
 30
0.0
 10
1.86524
 20
11.96998
 30
0.0
 10
1.87702
 20
11.9858
 30
0.0
 10
1.88854
 20
12.00181
 30
0.0
 10
1.89981
 20
12.01803
 30
0.0
 10
1.89981
 20
12.01803
 30
0.0
 10
1.90028
 20
12.02355
 30
0.0
 10
1.89953
 20
12.02865
 30
0.0
 10
1.89753
 20
12.03334
 30
0.0
 10
1.89753
 20
12.03334
 30
0.0
 10
1.89554
 20
12.03804
 30
0.0
 10
1.89265
 20
12.0419
 30
0.0
 10
1.88884
 20
12.04493
 30
0.0
 10
1.88884
 20
12.04493
 30
0.0
 10
1.88523
 20
12.0478
 30
0.0
 10
1.88101
 20
12.04968
 30
0.0
 10
1.87617
 20
12.0506
 30
0.0
 10
1.87617
 20
12.0506
 30
0.0
 10
1.87133
 20
12.0515
 30
0.0
 10
1.86636
 20
12.05121
 30
0.0
 10
1.86124
 20
12.04972
 30
0.0
 10
1.86124
 20
12.04972
 30
0.0
 10
1.86124
 20
12.04972
 30
0.0
 10
1.86046
 20
12.04936
 30
0.0
 10
1.86046
 20
12.04936
 30
0.0
 10
1.86046
 20
12.04936
 30
0.0
 10
1.83395
 20
12.01975
 30
0.0
 10
1.8081
 20
11.98912
 30
0.0
 10
1.78291
 20
11.95748
 30
0.0
 10
1.78291
 20
11.95748
 30
0.0
 10
1.77144
 20
11.94306
 30
0.0
 10
1.76011
 20
11.92843
 30
0.0
 10
1.74896
 20
11.91358
 30
0.0
 10
1.74896
 20
11.91358
 30
0.0
 10
1.7378
 20
11.89875
 30
0.0
 10
1.72679
 20
11.88388
 30
0.0
 10
1.71591
 20
11.86898
 30
0.0
 10
1.71591
 20
11.86898
 30
0.0
 10
1.71564
 20
11.86331
 30
0.0
 10
1.71661
 20
11.85795
 30
0.0
 10
1.71882
 20
11.85292
 30
0.0
 10
1.71882
 20
11.85292
 30
0.0
 10
1.72104
 20
11.84789
 30
0.0
 10
1.72415
 20
11.84378
 30
0.0
 10
1.72815
 20
11.84059
 30
0.0
 10
1.72815
 20
11.84059
 30
0.0
 10
1.73176
 20
11.83772
 30
0.0
 10
1.73584
 20
11.83577
 30
0.0
 10
1.74043
 20
11.83474
 30
0.0
 10
1.74043
 20
11.83474
 30
0.0
 10
1.74501
 20
11.83371
 30
0.0
 10
1.74976
 20
11.83403
 30
0.0
 10
1.75466
 20
11.83568
 30
0.0
 10
1.75466
 20
11.83568
 30
0.0
 10
1.76762
 20
11.8499
 30
0.0
 10
1.78025
 20
11.86423
 30
0.0
 10
1.79255
 20
11.87865
 30
0.0
 10
1.79255
 20
11.87865
 30
0.0
 10
1.80484
 20
11.89307
 30
0.0
 10
1.81697
 20
11.90779
 30
0.0
 10
1.82893
 20
11.92281
 30
0.0
  0
SPLINE
  5
61
330
1F
100
AcDbEntity
  8
Warstwa 1
 62
   250
100
AcDbSpline
210
0.0
220
0.0
230
1.0
 70
    11
 71
     3
 72
    96
 73
    92
 74
     0
 42
0.0000000001
 43
0.0000000001
 40
0.0
 40
0.0
 40
0.0
 40
0.0
 40
0.0434782608695652
 40
0.0434782608695652
 40
0.0434782608695652
 40
0.0434782608695652
 40
0.0869565217391304
 40
0.0869565217391304
 40
0.0869565217391304
 40
0.0869565217391304
 40
0.1304347826086956
 40
0.1304347826086956
 40
0.1304347826086956
 40
0.1304347826086956
 40
0.1739130434782609
 40
0.1739130434782609
 40
0.1739130434782609
 40
0.1739130434782609
 40
0.2173913043478261
 40
0.2173913043478261
 40
0.2173913043478261
 40
0.2173913043478261
 40
0.2608695652173913
 40
0.2608695652173913
 40
0.2608695652173913
 40
0.2608695652173913
 40
0.3043478260869565
 40
0.3043478260869565
 40
0.3043478260869565
 40
0.3043478260869565
 40
0.3478260869565217
 40
0.3478260869565217
 40
0.3478260869565217
 40
0.3478260869565217
 40
0.3913043478260869
 40
0.3913043478260869
 40
0.3913043478260869
 40
0.3913043478260869
 40
0.4347826086956521
 40
0.4347826086956521
 40
0.4347826086956521
 40
0.4347826086956521
 40
0.4782608695652173
 40
0.4782608695652173
 40
0.4782608695652173
 40
0.4782608695652173
 40
0.5217391304347825
 40
0.5217391304347825
 40
0.5217391304347825
 40
0.5217391304347825
 40
0.5652173913043477
 40
0.5652173913043477
 40
0.5652173913043477
 40
0.5652173913043477
 40
0.6086956521739129
 40
0.6086956521739129
 40
0.6086956521739129
 40
0.6086956521739129
 40
0.652173913043478
 40
0.652173913043478
 40
0.652173913043478
 40
0.652173913043478
 40
0.6956521739130432
 40
0.6956521739130432
 40
0.6956521739130432
 40
0.6956521739130432
 40
0.7391304347826084
 40
0.7391304347826084
 40
0.7391304347826084
 40
0.7391304347826084
 40
0.7826086956521736
 40
0.7826086956521736
 40
0.7826086956521736
 40
0.7826086956521736
 40
0.8260869565217388
 40
0.8260869565217388
 40
0.8260869565217388
 40
0.8260869565217388
 40
0.869565217391304
 40
0.869565217391304
 40
0.869565217391304
 40
0.869565217391304
 40
0.9130434782608692
 40
0.9130434782608692
 40
0.9130434782608692
 40
0.9130434782608692
 40
0.9565217391304344
 40
0.9565217391304344
 40
0.9565217391304344
 40
0.9565217391304344
 40
1.0
 40
1.0
 40
1.0
 40
1.0
 10
2.12616
 20
11.74756
 30
0.0
 10
2.12982
 20
11.75709
 30
0.0
 10
2.13222
 20
11.76687
 30
0.0
 10
2.13335
 20
11.77693
 30
0.0
 10
2.13335
 20
11.77693
 30
0.0
 10
2.13448
 20
11.78699
 30
0.0
 10
2.13443
 20
11.797
 30
0.0
 10
2.13322
 20
11.80697
 30
0.0
 10
2.13322
 20
11.80697
 30
0.0
 10
2.13199
 20
11.81694
 30
0.0
 10
2.12978
 20
11.8268
 30
0.0
 10
2.12657
 20
11.83655
 30
0.0
 10
2.12657
 20
11.83655
 30
0.0
 10
2.12338
 20
11.84629
 30
0.0
 10
2.11928
 20
11.85544
 30
0.0
 10
2.11431
 20
11.86398
 30
0.0
 10
2.11431
 20
11.86398
 30
0.0
 10
2.11406
 20
11.86451
 30
0.0
 10
2.11378
 20
11.86506
 30
0.0
 10
2.11343
 20
11.86566
 30
0.0
 10
2.11343
 20
11.86566
 30
0.0
 10
2.11309
 20
11.86626
 30
0.0
 10
2.1128
 20
11.86682
 30
0.0
 10
2.11256
 20
11.86734
 30
0.0
 10
2.11256
 20
11.86734
 30
0.0
 10
2.11256
 20
11.86734
 30
0.0
 10
2.11286
 20
11.8671
 30
0.0
 10
2.11286
 20
11.8671
 30
0.0
 10
2.11286
 20
11.8671
 30
0.0
 10
2.11125
 20
11.87002
 30
0.0
 10
2.10957
 20
11.87283
 30
0.0
 10
2.1078
 20
11.87554
 30
0.0
 10
2.1078
 20
11.87554
 30
0.0
 10
2.10604
 20
11.87825
 30
0.0
 10
2.10391
 20
11.88093
 30
0.0
 10
2.10143
 20
11.88356
 30
0.0
 10
2.10143
 20
11.88356
 30
0.0
 10
2.10143
 20
11.88356
 30
0.0
 10
2.09927
 20
11.88331
 30
0.0
 10
2.09927
 20
11.88331
 30
0.0
 10
2.09927
 20
11.88331
 30
0.0
 10
2.09752
 20
11.88112
 30
0.0
 10
2.09592
 20
11.87902
 30
0.0
 10
2.09451
 20
11.87704
 30
0.0
 10
2.09451
 20
11.87704
 30
0.0
 10
2.0931
 20
11.87506
 30
0.0
 10
2.09159
 20
11.87306
 30
0.0
 10
2.09
 20
11.87106
 30
0.0
 10
2.09
 20
11.87106
 30
0.0
 10
2.08686
 20
11.8667
 30
0.0
 10
2.0837
 20
11.86242
 30
0.0
 10
2.08053
 20
11.85823
 30
0.0
 10
2.08053
 20
11.85823
 30
0.0
 10
2.07736
 20
11.85405
 30
0.0
 10
2.07418
 20
11.84996
 30
0.0
 10
2.07099
 20
11.84595
 30
0.0
 10
2.07099
 20
11.84595
 30
0.0
 10
2.07035
 20
11.84514
 30
0.0
 10
2.07043
 20
11.84443
 30
0.0
 10
2.07124
 20
11.84379
 30
0.0
 10
2.07124
 20
11.84379
 30
0.0
 10
2.07124
 20
11.84379
 30
0.0
 10
2.07214
 20
11.84307
 30
0.0
 10
2.07214
 20
11.84307
 30
0.0
 10
2.07214
 20
11.84307
 30
0.0
 10
2.07654
 20
11.83956
 30
0.0
 10
2.0799
 20
11.83535
 30
0.0
 10
2.08219
 20
11.83042
 30
0.0
 10
2.08219
 20
11.83042
 30
0.0
 10
2.08448
 20
11.82548
 30
0.0
 10
2.08583
 20
11.82031
 30
0.0
 10
2.08628
 20
11.81489
 30
0.0
 10
2.08628
 20
11.81489
 30
0.0
 10
2.08671
 20
11.80948
 30
0.0
 10
2.08632
 20
11.80406
 30
0.0
 10
2.08511
 20
11.79864
 30
0.0
 10
2.08511
 20
11.79864
 30
0.0
 10
2.08391
 20
11.79322
 30
0.0
 10
2.08211
 20
11.78819
 30
0.0
 10
2.07972
 20
11.78355
 30
0.0
 10
2.07972
 20
11.78355
 30
0.0
 10
2.07924
 20
11.78294
 30
0.0
 10
2.07941
 20
11.78232
 30
0.0
 10
2.08021
 20
11.78169
 30
0.0
 10
2.08021
 20
11.78169
 30
0.0
 10
2.08021
 20
11.78169
 30
0.0
 10
2.12377
 20
11.74701
 30
0.0
 10
2.12377
 20
11.74701
 30
0.0
 10
2.12377
 20
11.74701
 30
0.0
 10
2.12497
 20
11.74606
 30
0.0
 10
2.12577
 20
11.74624
 30
0.0
 10
2.12616
 20
11.74756
 30
0.0
  0
SPLINE
  5
62
330
1F
100
AcDbEntity
  8
Warstwa 1
 62
   250
100
AcDbSpline
210
0.0
220
0.0
230
1.0
 70
    11
 71
     3
 72
   132
 73
   128
 74
     0
 42
0.0000000001
 43
0.0000000001
 40
0.0
 40
0.0
 40
0.0
 40
0.0
 40
0.03125
 40
0.03125
 40
0.03125
 40
0.03125
 40
0.0625
 40
0.0625
 40
0.0625
 40
0.0625
 40
0.09375
 40
0.09375
 40
0.09375
 40
0.09375
 40
0.125
 40
0.125
 40
0.125
 40
0.125
 40
0.15625
 40
0.15625
 40
0.15625
 40
0.15625
 40
0.1875
 40
0.1875
 40
0.1875
 40
0.1875
 40
0.21875
 40
0.21875
 40
0.21875
 40
0.21875
 40
0.25
 40
0.25
 40
0.25
 40
0.25
 40
0.28125
 40
0.28125
 40
0.28125
 40
0.28125
 40
0.3125
 40
0.3125
 40
0.3125
 40
0.3125
 40
0.34375
 40
0.34375
 40
0.34375
 40
0.34375
 40
0.375
 40
0.375
 40
0.375
 40
0.375
 40
0.40625
 40
0.40625
 40
0.40625
 40
0.40625
 40
0.4375
 40
0.4375
 40
0.4375
 40
0.4375
 40
0.46875
 40
0.46875
 40
0.46875
 40
0.46875
 40
0.5
 40
0.5
 40
0.5
 40
0.5
 40
0.53125
 40
0.53125
 40
0.53125
 40
0.53125
 40
0.5625
 40
0.5625
 40
0.5625
 40
0.5625
 40
0.59375
 40
0.59375
 40
0.59375
 40
0.59375
 40
0.625
 40
0.625
 40
0.625
 40
0.625
 40
0.65625
 40
0.65625
 40
0.65625
 40
0.65625
 40
0.6875
 40
0.6875
 40
0.6875
 40
0.6875
 40
0.71875
 40
0.71875
 40
0.71875
 40
0.71875
 40
0.75
 40
0.75
 40
0.75
 40
0.75
 40
0.78125
 40
0.78125
 40
0.78125
 40
0.78125
 40
0.8125
 40
0.8125
 40
0.8125
 40
0.8125
 40
0.84375
 40
0.84375
 40
0.84375
 40
0.84375
 40
0.875
 40
0.875
 40
0.875
 40
0.875
 40
0.90625
 40
0.90625
 40
0.90625
 40
0.90625
 40
0.9375
 40
0.9375
 40
0.9375
 40
0.9375
 40
0.96875
 40
0.96875
 40
0.96875
 40
0.96875
 40
1.0
 40
1.0
 40
1.0
 40
1.0
 10
2.10346
 20
11.7141
 30
0.0
 10
2.10346
 20
11.7141
 30
0.0
 10
2.10872
 20
11.72071
 30
0.0
 10
2.10872
 20
11.72071
 30
0.0
 10
2.10872
 20
11.72071
 30
0.0
 10
2.10935
 20
11.72151
 30
0.0
 10
2.10927
 20
11.72223
 30
0.0
 10
2.10847
 20
11.72286
 30
0.0
 10
2.10847
 20
11.72286
 30
0.0
 10
2.09578
 20
11.73363
 30
0.0
 10
2.0831
 20
11.74421
 30
0.0
 10
2.07044
 20
11.75462
 30
0.0
 10
2.07044
 20
11.75462
 30
0.0
 10
2.05778
 20
11.76502
 30
0.0
 10
2.04502
 20
11.77551
 30
0.0
 10
2.03216
 20
11.78607
 30
0.0
 10
2.03216
 20
11.78607
 30
0.0
 10
2.03216
 20
11.78607
 30
0.0
 10
2.03001
 20
11.78582
 30
0.0
 10
2.03001
 20
11.78582
 30
0.0
 10
2.03001
 20
11.78582
 30
0.0
 10
2.03001
 20
11.78582
 30
0.0
 10
1.99964
 20
11.74766
 30
0.0
 10
1.99964
 20
11.74766
 30
0.0
 10
1.99964
 20
11.74766
 30
0.0
 10
1.999
 20
11.74687
 30
0.0
 10
1.99908
 20
11.74615
 30
0.0
 10
1.99988
 20
11.74551
 30
0.0
 10
1.99988
 20
11.74551
 30
0.0
 10
2.00248
 20
11.74344
 30
0.0
 10
2.00503
 20
11.74149
 30
0.0
 10
2.00751
 20
11.73968
 30
0.0
 10
2.00751
 20
11.73968
 30
0.0
 10
2.00999
 20
11.73787
 30
0.0
 10
2.01244
 20
11.736
 30
0.0
 10
2.01484
 20
11.73409
 30
0.0
 10
2.01484
 20
11.73409
 30
0.0
 10
2.01824
 20
11.73138
 30
0.0
 10
2.02166
 20
11.72859
 30
0.0
 10
2.02508
 20
11.7257
 30
0.0
 10
2.02508
 20
11.7257
 30
0.0
 10
2.02851
 20
11.7228
 30
0.0
 10
2.03201
 20
11.72011
 30
0.0
 10
2.03557
 20
11.71759
 30
0.0
 10
2.03557
 20
11.71759
 30
0.0
 10
2.03055
 20
11.71374
 30
0.0
 10
2.02505
 20
11.71034
 30
0.0
 10
2.0191
 20
11.70739
 30
0.0
 10
2.0191
 20
11.70739
 30
0.0
 10
2.01316
 20
11.70444
 30
0.0
 10
2.00705
 20
11.70242
 30
0.0
 10
2.0008
 20
11.70135
 30
0.0
 10
2.0008
 20
11.70135
 30
0.0
 10
1.99454
 20
11.70027
 30
0.0
 10
1.98831
 20
11.70025
 30
0.0
 10
1.98209
 20
11.70128
 30
0.0
 10
1.98209
 20
11.70128
 30
0.0
 10
1.97587
 20
11.70229
 30
0.0
 10
1.96997
 20
11.70486
 30
0.0
 10
1.96441
 20
11.70896
 30
0.0
 10
1.96441
 20
11.70896
 30
0.0
 10
1.96361
 20
11.7096
 30
0.0
 10
1.96289
 20
11.70952
 30
0.0
 10
1.96226
 20
11.70872
 30
0.0
 10
1.96226
 20
11.70872
 30
0.0
 10
1.95711
 20
11.70267
 30
0.0
 10
1.95208
 20
11.69677
 30
0.0
 10
1.94719
 20
11.69102
 30
0.0
 10
1.94719
 20
11.69102
 30
0.0
 10
1.94228
 20
11.68528
 30
0.0
 10
1.93716
 20
11.67945
 30
0.0
 10
1.93182
 20
11.67356
 30
0.0
 10
1.93182
 20
11.67356
 30
0.0
 10
1.93118
 20
11.67276
 30
0.0
 10
1.93126
 20
11.67204
 30
0.0
 10
1.93206
 20
11.67141
 30
0.0
 10
1.93206
 20
11.67141
 30
0.0
 10
1.93662
 20
11.6681
 30
0.0
 10
1.94159
 20
11.6657
 30
0.0
 10
1.94695
 20
11.66422
 30
0.0
 10
1.94695
 20
11.66422
 30
0.0
 10
1.95231
 20
11.66273
 30
0.0
 10
1.95778
 20
11.66189
 30
0.0
 10
1.96336
 20
11.66171
 30
0.0
 10
1.96336
 20
11.66171
 30
0.0
 10
1.96893
 20
11.66152
 30
0.0
 10
1.9745
 20
11.66183
 30
0.0
 10
1.98006
 20
11.66265
 30
0.0
 10
1.98006
 20
11.66265
 30
0.0
 10
1.98562
 20
11.66346
 30
0.0
 10
1.99107
 20
11.66435
 30
0.0
 10
1.99642
 20
11.66533
 30
0.0
 10
1.99642
 20
11.66533
 30
0.0
 10
1.99435
 20
11.66272
 30
0.0
 10
1.99221
 20
11.66025
 30
0.0
 10
1.99003
 20
11.65791
 30
0.0
 10
1.99003
 20
11.65791
 30
0.0
 10
1.98783
 20
11.65557
 30
0.0
 10
1.98568
 20
11.65326
 30
0.0
 10
1.98356
 20
11.65102
 30
0.0
 10
1.98356
 20
11.65102
 30
0.0
 10
1.98292
 20
11.65022
 30
0.0
 10
1.98232
 20
11.64956
 30
0.0
 10
1.98174
 20
11.64904
 30
0.0
 10
1.98174
 20
11.64904
 30
0.0
 10
1.98116
 20
11.64852
 30
0.0
 10
1.98056
 20
11.64786
 30
0.0
 10
1.97991
 20
11.64705
 30
0.0
 10
1.97991
 20
11.64705
 30
0.0
 10
1.97928
 20
11.64625
 30
0.0
 10
1.97946
 20
11.64546
 30
0.0
 10
1.98046
 20
11.64466
 30
0.0
 10
1.98046
 20
11.64466
 30
0.0
 10
1.9859
 20
11.64163
 30
0.0
 10
1.99132
 20
11.63879
 30
0.0
 10
1.99673
 20
11.63612
 30
0.0
 10
1.99673
 20
11.63612
 30
0.0
 10
2.00213
 20
11.63346
 30
0.0
 10
2.00762
 20
11.63089
 30
0.0
 10
2.01318
 20
11.62843
 30
0.0
 10
2.01318
 20
11.62843
 30
0.0
 10
2.01378
 20
11.62795
 30
0.0
 10
2.01432
 20
11.62801
 30
0.0
 10
2.0148
 20
11.62861
 30
0.0
 10
2.0148
 20
11.62861
 30
0.0
 10
2.04776
 20
11.65276
 30
0.0
 10
2.07731
 20
11.68126
 30
0.0
 10
2.10346
 20
11.7141
 30
0.0
  0
SPLINE
  5
63
330
1F
100
AcDbEntity
  8
Warstwa 1
 62
   250
100
AcDbSpline
210
0.0
220
0.0
230
1.0
 70
    11
 71
     3
 72
   156
 73
   152
 74
     0
 42
0.0000000001
 43
0.0000000001
 40
0.0
 40
0.0
 40
0.0
 40
0.0
 40
0.0263157894736842
 40
0.0263157894736842
 40
0.0263157894736842
 40
0.0263157894736842
 40
0.0526315789473684
 40
0.0526315789473684
 40
0.0526315789473684
 40
0.0526315789473684
 40
0.0789473684210526
 40
0.0789473684210526
 40
0.0789473684210526
 40
0.0789473684210526
 40
0.1052631578947368
 40
0.1052631578947368
 40
0.1052631578947368
 40
0.1052631578947368
 40
0.131578947368421
 40
0.131578947368421
 40
0.131578947368421
 40
0.131578947368421
 40
0.1578947368421053
 40
0.1578947368421053
 40
0.1578947368421053
 40
0.1578947368421053
 40
0.1842105263157895
 40
0.1842105263157895
 40
0.1842105263157895
 40
0.1842105263157895
 40
0.2105263157894737
 40
0.2105263157894737
 40
0.2105263157894737
 40
0.2105263157894737
 40
0.2368421052631579
 40
0.2368421052631579
 40
0.2368421052631579
 40
0.2368421052631579
 40
0.2631578947368421
 40
0.2631578947368421
 40
0.2631578947368421
 40
0.2631578947368421
 40
0.2894736842105263
 40
0.2894736842105263
 40
0.2894736842105263
 40
0.2894736842105263
 40
0.3157894736842105
 40
0.3157894736842105
 40
0.3157894736842105
 40
0.3157894736842105
 40
0.3421052631578947
 40
0.3421052631578947
 40
0.3421052631578947
 40
0.3421052631578947
 40
0.3684210526315789
 40
0.3684210526315789
 40
0.3684210526315789
 40
0.3684210526315789
 40
0.3947368421052631
 40
0.3947368421052631
 40
0.3947368421052631
 40
0.3947368421052631
 40
0.4210526315789472
 40
0.4210526315789472
 40
0.4210526315789472
 40
0.4210526315789472
 40
0.4473684210526314
 40
0.4473684210526314
 40
0.4473684210526314
 40
0.4473684210526314
 40
0.4736842105263156
 40
0.4736842105263156
 40
0.4736842105263156
 40
0.4736842105263156
 40
0.4999999999999998
 40
0.4999999999999998
 40
0.4999999999999998
 40
0.4999999999999998
 40
0.526315789473684
 40
0.526315789473684
 40
0.526315789473684
 40
0.526315789473684
 40
0.5526315789473681
 40
0.5526315789473681
 40
0.5526315789473681
 40
0.5526315789473681
 40
0.5789473684210523
 40
0.5789473684210523
 40
0.5789473684210523
 40
0.5789473684210523
 40
0.6052631578947365
 40
0.6052631578947365
 40
0.6052631578947365
 40
0.6052631578947365
 40
0.6315789473684207
 40
0.6315789473684207
 40
0.6315789473684207
 40
0.6315789473684207
 40
0.6578947368421049
 40
0.6578947368421049
 40
0.6578947368421049
 40
0.6578947368421049
 40
0.684210526315789
 40
0.684210526315789
 40
0.684210526315789
 40
0.684210526315789
 40
0.7105263157894732
 40
0.7105263157894732
 40
0.7105263157894732
 40
0.7105263157894732
 40
0.7368421052631574
 40
0.7368421052631574
 40
0.7368421052631574
 40
0.7368421052631574
 40
0.7631578947368416
 40
0.7631578947368416
 40
0.7631578947368416
 40
0.7631578947368416
 40
0.7894736842105258
 40
0.7894736842105258
 40
0.7894736842105258
 40
0.7894736842105258
 40
0.81578947368421
 40
0.81578947368421
 40
0.81578947368421
 40
0.81578947368421
 40
0.8421052631578941
 40
0.8421052631578941
 40
0.8421052631578941
 40
0.8421052631578941
 40
0.8684210526315783
 40
0.8684210526315783
 40
0.8684210526315783
 40
0.8684210526315783
 40
0.8947368421052625
 40
0.8947368421052625
 40
0.8947368421052625
 40
0.8947368421052625
 40
0.9210526315789467
 40
0.9210526315789467
 40
0.9210526315789467
 40
0.9210526315789467
 40
0.9473684210526309
 40
0.9473684210526309
 40
0.9473684210526309
 40
0.9473684210526309
 40
0.973684210526315
 40
0.973684210526315
 40
0.973684210526315
 40
0.973684210526315
 40
1.0
 40
1.0
 40
1.0
 40
1.0
 10
2.06636
 20
11.87958
 30
0.0
 10
2.06636
 20
11.87958
 30
0.0
 10
2.0807
 20
11.8976
 30
0.0
 10
2.0807
 20
11.8976
 30
0.0
 10
2.0807
 20
11.8976
 30
0.0
 10
2.08134
 20
11.8984
 30
0.0
 10
2.08126
 20
11.89912
 30
0.0
 10
2.08045
 20
11.89976
 30
0.0
 10
2.08045
 20
11.89976
 30
0.0
 10
2.08005
 20
11.90008
 30
0.0
 10
2.07975
 20
11.90041
 30
0.0
 10
2.07953
 20
11.90075
 30
0.0
 10
2.07953
 20
11.90075
 30
0.0
 10
2.0793
 20
11.90109
 30
0.0
 10
2.079
 20
11.90141
 30
0.0
 10
2.07859
 20
11.90174
 30
0.0
 10
2.07859
 20
11.90174
 30
0.0
 10
2.07859
 20
11.90174
 30
0.0
 10
2.07619
 20
11.90365
 30
0.0
 10
2.07619
 20
11.90365
 30
0.0
 10
2.07619
 20
11.90365
 30
0.0
 10
2.07523
 20
11.90408
 30
0.0
 10
2.07394
 20
11.90494
 30
0.0
 10
2.07234
 20
11.90622
 30
0.0
 10
2.07234
 20
11.90622
 30
0.0
 10
2.07038
 20
11.90745
 30
0.0
 10
2.06862
 20
11.90853
 30
0.0
 10
2.06706
 20
11.90945
 30
0.0
 10
2.06706
 20
11.90945
 30
0.0
 10
2.0655
 20
11.91036
 30
0.0
 10
2.06368
 20
11.91115
 30
0.0
 10
2.0616
 20
11.91183
 30
0.0
 10
2.0616
 20
11.91183
 30
0.0
 10
2.04779
 20
11.91791
 30
0.0
 10
2.03356
 20
11.9213
 30
0.0
 10
2.01891
 20
11.92201
 30
0.0
 10
2.01891
 20
11.92201
 30
0.0
 10
2.00425
 20
11.92271
 30
0.0
 10
1.98996
 20
11.92109
 30
0.0
 10
1.97601
 20
11.91714
 30
0.0
 10
1.97601
 20
11.91714
 30
0.0
 10
1.96207
 20
11.91318
 30
0.0
 10
1.94888
 20
11.90709
 30
0.0
 10
1.93642
 20
11.89884
 30
0.0
 10
1.93642
 20
11.89884
 30
0.0
 10
1.92396
 20
11.89059
 30
0.0
 10
1.91319
 20
11.88076
 30
0.0
 10
1.90411
 20
11.86934
 30
0.0
 10
1.90411
 20
11.86934
 30
0.0
 10
1.90411
 20
11.86934
 30
0.0
 10
1.90005
 20
11.86424
 30
0.0
 10
1.90005
 20
11.86424
 30
0.0
 10
1.90005
 20
11.86424
 30
0.0
 10
1.89064
 20
11.85242
 30
0.0
 10
1.88315
 20
11.839
 30
0.0
 10
1.87757
 20
11.82398
 30
0.0
 10
1.87757
 20
11.82398
 30
0.0
 10
1.87198
 20
11.80895
 30
0.0
 10
1.8688
 20
11.79365
 30
0.0
 10
1.86803
 20
11.77807
 30
0.0
 10
1.86803
 20
11.77807
 30
0.0
 10
1.86724
 20
11.76251
 30
0.0
 10
1.86932
 20
11.74744
 30
0.0
 10
1.87426
 20
11.73288
 30
0.0
 10
1.87426
 20
11.73288
 30
0.0
 10
1.87919
 20
11.71832
 30
0.0
 10
1.88764
 20
11.70562
 30
0.0
 10
1.89962
 20
11.69477
 30
0.0
 10
1.89962
 20
11.69477
 30
0.0
 10
1.90107
 20
11.6933
 30
0.0
 10
1.90267
 20
11.69203
 30
0.0
 10
1.90442
 20
11.69095
 30
0.0
 10
1.90442
 20
11.69095
 30
0.0
 10
1.90619
 20
11.68987
 30
0.0
 10
1.90795
 20
11.68879
 30
0.0
 10
1.90972
 20
11.68772
 30
0.0
 10
1.90972
 20
11.68772
 30
0.0
 10
1.90972
 20
11.68772
 30
0.0
 10
1.91062
 20
11.687
 30
0.0
 10
1.91062
 20
11.687
 30
0.0
 10
1.91062
 20
11.687
 30
0.0
 10
1.91141
 20
11.68637
 30
0.0
 10
1.91213
 20
11.68645
 30
0.0
 10
1.91277
 20
11.68725
 30
0.0
 10
1.91277
 20
11.68725
 30
0.0
 10
1.91277
 20
11.68725
 30
0.0
 10
1.94242
 20
11.7245
 30
0.0
 10
1.94242
 20
11.7245
 30
0.0
 10
1.94242
 20
11.7245
 30
0.0
 10
1.94306
 20
11.7253
 30
0.0
 10
1.94308
 20
11.72594
 30
0.0
 10
1.94248
 20
11.72642
 30
0.0
 10
1.94248
 20
11.72642
 30
0.0
 10
1.93626
 20
11.733
 30
0.0
 10
1.93119
 20
11.74081
 30
0.0
 10
1.92726
 20
11.74983
 30
0.0
 10
1.92726
 20
11.74983
 30
0.0
 10
1.92331
 20
11.75886
 30
0.0
 10
1.92209
 20
11.768
 30
0.0
 10
1.92358
 20
11.77728
 30
0.0
 10
1.92358
 20
11.77728
 30
0.0
 10
1.92358
 20
11.77728
 30
0.0
 10
1.92389
 20
11.77704
 30
0.0
 10
1.92389
 20
11.77704
 30
0.0
 10
1.92389
 20
11.77704
 30
0.0
 10
1.92718
 20
11.78817
 30
0.0
 10
1.9314
 20
11.79748
 30
0.0
 10
1.93656
 20
11.80499
 30
0.0
 10
1.93656
 20
11.80499
 30
0.0
 10
1.94172
 20
11.8125
 30
0.0
 10
1.94691
 20
11.81974
 30
0.0
 10
1.95213
 20
11.82671
 30
0.0
 10
1.95213
 20
11.82671
 30
0.0
 10
1.95284
 20
11.82843
 30
0.0
 10
1.95377
 20
11.8299
 30
0.0
 10
1.95491
 20
11.83112
 30
0.0
 10
1.95491
 20
11.83112
 30
0.0
 10
1.95605
 20
11.83235
 30
0.0
 10
1.95717
 20
11.83365
 30
0.0
 10
1.95828
 20
11.83505
 30
0.0
 10
1.95828
 20
11.83505
 30
0.0
 10
1.96371
 20
11.84187
 30
0.0
 10
1.97004
 20
11.84819
 30
0.0
 10
1.97731
 20
11.85402
 30
0.0
 10
1.97731
 20
11.85402
 30
0.0
 10
1.98457
 20
11.85986
 30
0.0
 10
1.99226
 20
11.86438
 30
0.0
 10
2.00036
 20
11.86757
 30
0.0
 10
2.00036
 20
11.86757
 30
0.0
 10
2.00847
 20
11.87077
 30
0.0
 10
2.01674
 20
11.87212
 30
0.0
 10
2.02518
 20
11.87162
 30
0.0
 10
2.02518
 20
11.87162
 30
0.0
 10
2.03361
 20
11.87112
 30
0.0
 10
2.04164
 20
11.86784
 30
0.0
 10
2.04925
 20
11.86179
 30
0.0
 10
2.04925
 20
11.86179
 30
0.0
 10
2.04925
 20
11.86179
 30
0.0
 10
2.04955
 20
11.86155
 30
0.0
 10
2.04955
 20
11.86155
 30
0.0
 10
2.04955
 20
11.86155
 30
0.0
 10
2.05035
 20
11.86091
 30
0.0
 10
2.05099
 20
11.86089
 30
0.0
 10
2.05147
 20
11.86149
 30
0.0
 10
2.05147
 20
11.86149
 30
0.0
 10
2.05422
 20
11.86453
 30
0.0
 10
2.05679
 20
11.86756
 30
0.0
 10
2.05918
 20
11.87056
 30
0.0
 10
2.05918
 20
11.87056
 30
0.0
 10
2.06157
 20
11.87357
 30
0.0
 10
2.06396
 20
11.87657
 30
0.0
 10
2.06636
 20
11.87958
 30
0.0
  0
SPLINE
  5
64
330
1F
100
AcDbEntity
  8
Warstwa 1
 62
   250
100
AcDbSpline
210
0.0
220
0.0
230
1.0
 70
    11
 71
     3
 72
   144
 73
   140
 74
     0
 42
0.0000000001
 43
0.0000000001
 40
0.0
 40
0.0
 40
0.0
 40
0.0
 40
0.0285714285714286
 40
0.0285714285714286
 40
0.0285714285714286
 40
0.0285714285714286
 40
0.0571428571428571
 40
0.0571428571428571
 40
0.0571428571428571
 40
0.0571428571428571
 40
0.0857142857142857
 40
0.0857142857142857
 40
0.0857142857142857
 40
0.0857142857142857
 40
0.1142857142857143
 40
0.1142857142857143
 40
0.1142857142857143
 40
0.1142857142857143
 40
0.1428571428571428
 40
0.1428571428571428
 40
0.1428571428571428
 40
0.1428571428571428
 40
0.1714285714285714
 40
0.1714285714285714
 40
0.1714285714285714
 40
0.1714285714285714
 40
0.2
 40
0.2
 40
0.2
 40
0.2
 40
0.2285714285714286
 40
0.2285714285714286
 40
0.2285714285714286
 40
0.2285714285714286
 40
0.2571428571428572
 40
0.2571428571428572
 40
0.2571428571428572
 40
0.2571428571428572
 40
0.2857142857142858
 40
0.2857142857142858
 40
0.2857142857142858
 40
0.2857142857142858
 40
0.3142857142857143
 40
0.3142857142857143
 40
0.3142857142857143
 40
0.3142857142857143
 40
0.3428571428571429
 40
0.3428571428571429
 40
0.3428571428571429
 40
0.3428571428571429
 40
0.3714285714285715
 40
0.3714285714285715
 40
0.3714285714285715
 40
0.3714285714285715
 40
0.4000000000000001
 40
0.4000000000000001
 40
0.4000000000000001
 40
0.4000000000000001
 40
0.4285714285714287
 40
0.4285714285714287
 40
0.4285714285714287
 40
0.4285714285714287
 40
0.4571428571428572
 40
0.4571428571428572
 40
0.4571428571428572
 40
0.4571428571428572
 40
0.4857142857142858
 40
0.4857142857142858
 40
0.4857142857142858
 40
0.4857142857142858
 40
0.5142857142857143
 40
0.5142857142857143
 40
0.5142857142857143
 40
0.5142857142857143
 40
0.5428571428571429
 40
0.5428571428571429
 40
0.5428571428571429
 40
0.5428571428571429
 40
0.5714285714285715
 40
0.5714285714285715
 40
0.5714285714285715
 40
0.5714285714285715
 40
0.6000000000000001
 40
0.6000000000000001
 40
0.6000000000000001
 40
0.6000000000000001
 40
0.6285714285714287
 40
0.6285714285714287
 40
0.6285714285714287
 40
0.6285714285714287
 40
0.6571428571428573
 40
0.6571428571428573
 40
0.6571428571428573
 40
0.6571428571428573
 40
0.6857142857142858
 40
0.6857142857142858
 40
0.6857142857142858
 40
0.6857142857142858
 40
0.7142857142857144
 40
0.7142857142857144
 40
0.7142857142857144
 40
0.7142857142857144
 40
0.742857142857143
 40
0.742857142857143
 40
0.742857142857143
 40
0.742857142857143
 40
0.7714285714285716
 40
0.7714285714285716
 40
0.7714285714285716
 40
0.7714285714285716
 40
0.8000000000000002
 40
0.8000000000000002
 40
0.8000000000000002
 40
0.8000000000000002
 40
0.8285714285714287
 40
0.8285714285714287
 40
0.8285714285714287
 40
0.8285714285714287
 40
0.8571428571428573
 40
0.8571428571428573
 40
0.8571428571428573
 40
0.8571428571428573
 40
0.8857142857142859
 40
0.8857142857142859
 40
0.8857142857142859
 40
0.8857142857142859
 40
0.9142857142857145
 40
0.9142857142857145
 40
0.9142857142857145
 40
0.9142857142857145
 40
0.9428571428571431
 40
0.9428571428571431
 40
0.9428571428571431
 40
0.9428571428571431
 40
0.9714285714285716
 40
0.9714285714285716
 40
0.9714285714285716
 40
0.9714285714285716
 40
1.0
 40
1.0
 40
1.0
 40
1.0
 10
2.37928
 20
11.48915
 30
0.0
 10
2.37928
 20
11.48915
 30
0.0
 10
2.38191
 20
11.49246
 30
0.0
 10
2.38191
 20
11.49246
 30
0.0
 10
2.38191
 20
11.49246
 30
0.0
 10
2.39211
 20
11.50527
 30
0.0
 10
2.39946
 20
11.51955
 30
0.0
 10
2.40396
 20
11.53527
 30
0.0
 10
2.40396
 20
11.53527
 30
0.0
 10
2.40846
 20
11.55099
 30
0.0
 10
2.41021
 20
11.56694
 30
0.0
 10
2.40919
 20
11.58313
 30
0.0
 10
2.40919
 20
11.58313
 30
0.0
 10
2.40817
 20
11.59932
 30
0.0
 10
2.40439
 20
11.61492
 30
0.0
 10
2.39786
 20
11.62994
 30
0.0
 10
2.39786
 20
11.62994
 30
0.0
 10
2.39132
 20
11.64496
 30
0.0
 10
2.38213
 20
11.65816
 30
0.0
 10
2.37027
 20
11.66957
 30
0.0
 10
2.37027
 20
11.66957
 30
0.0
 10
2.36946
 20
11.67021
 30
0.0
 10
2.36875
 20
11.67013
 30
0.0
 10
2.3681
 20
11.66932
 30
0.0
 10
2.3681
 20
11.66932
 30
0.0
 10
2.36592
 20
11.66615
 30
0.0
 10
2.36372
 20
11.66309
 30
0.0
 10
2.36151
 20
11.6601
 30
0.0
 10
2.36151
 20
11.6601
 30
0.0
 10
2.35929
 20
11.65712
 30
0.0
 10
2.35691
 20
11.65402
 30
0.0
 10
2.35436
 20
11.65081
 30
0.0
 10
2.35436
 20
11.65081
 30
0.0
 10
2.35181
 20
11.64761
 30
0.0
 10
2.34934
 20
11.64451
 30
0.0
 10
2.34695
 20
11.6415
 30
0.0
 10
2.34695
 20
11.6415
 30
0.0
 10
2.34456
 20
11.6385
 30
0.0
 10
2.34218
 20
11.63531
 30
0.0
 10
2.33983
 20
11.63196
 30
0.0
 10
2.33983
 20
11.63196
 30
0.0
 10
2.33919
 20
11.63115
 30
0.0
 10
2.33927
 20
11.63043
 30
0.0
 10
2.34008
 20
11.62979
 30
0.0
 10
2.34008
 20
11.62979
 30
0.0
 10
2.34757
 20
11.62318
 30
0.0
 10
2.3526
 20
11.61583
 30
0.0
 10
2.35515
 20
11.60774
 30
0.0
 10
2.35515
 20
11.60774
 30
0.0
 10
2.35771
 20
11.59965
 30
0.0
 10
2.35839
 20
11.59134
 30
0.0
 10
2.35716
 20
11.58282
 30
0.0
 10
2.35716
 20
11.58282
 30
0.0
 10
2.35595
 20
11.57431
 30
0.0
 10
2.35326
 20
11.56589
 30
0.0
 10
2.34911
 20
11.55759
 30
0.0
 10
2.34911
 20
11.55759
 30
0.0
 10
2.34495
 20
11.54928
 30
0.0
 10
2.34016
 20
11.54172
 30
0.0
 10
2.33474
 20
11.53491
 30
0.0
 10
2.33474
 20
11.53491
 30
0.0
 10
2.33346
 20
11.53331
 30
0.0
 10
2.33227
 20
11.53181
 30
0.0
 10
2.33115
 20
11.53041
 30
0.0
 10
2.33115
 20
11.53041
 30
0.0
 10
2.33004
 20
11.52901
 30
0.0
 10
2.32874
 20
11.52758
 30
0.0
 10
2.32726
 20
11.52614
 30
0.0
 10
2.32726
 20
11.52614
 30
0.0
 10
2.32651
 20
11.52478
 30
0.0
 10
2.32565
 20
11.5235
 30
0.0
 10
2.32469
 20
11.52229
 30
0.0
 10
2.32469
 20
11.52229
 30
0.0
 10
2.32374
 20
11.5211
 30
0.0
 10
2.3227
 20
11.51979
 30
0.0
 10
2.32158
 20
11.51839
 30
0.0
 10
2.32158
 20
11.51839
 30
0.0
 10
2.31633
 20
11.51179
 30
0.0
 10
2.31016
 20
11.5059
 30
0.0
 10
2.3031
 20
11.50072
 30
0.0
 10
2.3031
 20
11.50072
 30
0.0
 10
2.29603
 20
11.49554
 30
0.0
 10
2.28863
 20
11.49179
 30
0.0
 10
2.28088
 20
11.48945
 30
0.0
 10
2.28088
 20
11.48945
 30
0.0
 10
2.27312
 20
11.48712
 30
0.0
 10
2.26515
 20
11.48634
 30
0.0
 10
2.25695
 20
11.48714
 30
0.0
 10
2.25695
 20
11.48714
 30
0.0
 10
2.24875
 20
11.48794
 30
0.0
 10
2.2409
 20
11.49101
 30
0.0
 10
2.23337
 20
11.49636
 30
0.0
 10
2.23337
 20
11.49636
 30
0.0
 10
2.23337
 20
11.49636
 30
0.0
 10
2.23121
 20
11.4961
 30
0.0
 10
2.23121
 20
11.4961
 30
0.0
 10
2.23121
 20
11.4961
 30
0.0
 10
2.22786
 20
11.49189
 30
0.0
 10
2.2245
 20
11.48778
 30
0.0
 10
2.22114
 20
11.48376
 30
0.0
 10
2.22114
 20
11.48376
 30
0.0
 10
2.21777
 20
11.47973
 30
0.0
 10
2.21439
 20
11.47579
 30
0.0
 10
2.211
 20
11.47195
 30
0.0
 10
2.211
 20
11.47195
 30
0.0
 10
2.20925
 20
11.46975
 30
0.0
 10
2.20752
 20
11.46768
 30
0.0
 10
2.20583
 20
11.46576
 30
0.0
 10
2.20583
 20
11.46576
 30
0.0
 10
2.20413
 20
11.46384
 30
0.0
 10
2.20241
 20
11.46177
 30
0.0
 10
2.20066
 20
11.45957
 30
0.0
 10
2.20066
 20
11.45957
 30
0.0
 10
2.20002
 20
11.45876
 30
0.0
 10
2.2002
 20
11.45797
 30
0.0
 10
2.2012
 20
11.45717
 30
0.0
 10
2.2012
 20
11.45717
 30
0.0
 10
2.20237
 20
11.45658
 30
0.0
 10
2.20325
 20
11.45604
 30
0.0
 10
2.20385
 20
11.45556
 30
0.0
 10
2.20385
 20
11.45556
 30
0.0
 10
2.20465
 20
11.45493
 30
0.0
 10
2.20545
 20
11.45429
 30
0.0
 10
2.20625
 20
11.45365
 30
0.0
 10
2.20625
 20
11.45365
 30
0.0
 10
2.2197
 20
11.44425
 30
0.0
 10
2.23452
 20
11.43851
 30
0.0
 10
2.25069
 20
11.43642
 30
0.0
 10
2.25069
 20
11.43642
 30
0.0
 10
2.26687
 20
11.43435
 30
0.0
 10
2.28285
 20
11.4352
 30
0.0
 10
2.29863
 20
11.439
 30
0.0
 10
2.29863
 20
11.439
 30
0.0
 10
2.31441
 20
11.4428
 30
0.0
 10
2.32937
 20
11.44905
 30
0.0
 10
2.34349
 20
11.45776
 30
0.0
 10
2.34349
 20
11.45776
 30
0.0
 10
2.35763
 20
11.46648
 30
0.0
 10
2.36956
 20
11.47693
 30
0.0
 10
2.37928
 20
11.48915
 30
0.0
  0
SPLINE
  5
65
330
1F
100
AcDbEntity
  8
Warstwa 1
 62
   250
100
AcDbSpline
210
0.0
220
0.0
230
1.0
 70
    11
 71
     3
 72
   136
 73
   132
 74
     0
 42
0.0000000001
 43
0.0000000001
 40
0.0
 40
0.0
 40
0.0
 40
0.0
 40
0.0303030303030303
 40
0.0303030303030303
 40
0.0303030303030303
 40
0.0303030303030303
 40
0.0606060606060606
 40
0.0606060606060606
 40
0.0606060606060606
 40
0.0606060606060606
 40
0.0909090909090909
 40
0.0909090909090909
 40
0.0909090909090909
 40
0.0909090909090909
 40
0.1212121212121212
 40
0.1212121212121212
 40
0.1212121212121212
 40
0.1212121212121212
 40
0.1515151515151515
 40
0.1515151515151515
 40
0.1515151515151515
 40
0.1515151515151515
 40
0.1818181818181818
 40
0.1818181818181818
 40
0.1818181818181818
 40
0.1818181818181818
 40
0.2121212121212121
 40
0.2121212121212121
 40
0.2121212121212121
 40
0.2121212121212121
 40
0.2424242424242424
 40
0.2424242424242424
 40
0.2424242424242424
 40
0.2424242424242424
 40
0.2727272727272727
 40
0.2727272727272727
 40
0.2727272727272727
 40
0.2727272727272727
 40
0.303030303030303
 40
0.303030303030303
 40
0.303030303030303
 40
0.303030303030303
 40
0.3333333333333333
 40
0.3333333333333333
 40
0.3333333333333333
 40
0.3333333333333333
 40
0.3636363636363635
 40
0.3636363636363635
 40
0.3636363636363635
 40
0.3636363636363635
 40
0.3939393939393938
 40
0.3939393939393938
 40
0.3939393939393938
 40
0.3939393939393938
 40
0.4242424242424241
 40
0.4242424242424241
 40
0.4242424242424241
 40
0.4242424242424241
 40
0.4545454545454544
 40
0.4545454545454544
 40
0.4545454545454544
 40
0.4545454545454544
 40
0.4848484848484846
 40
0.4848484848484846
 40
0.4848484848484846
 40
0.4848484848484846
 40
0.5151515151515149
 40
0.5151515151515149
 40
0.5151515151515149
 40
0.5151515151515149
 40
0.5454545454545452
 40
0.5454545454545452
 40
0.5454545454545452
 40
0.5454545454545452
 40
0.5757575757575755
 40
0.5757575757575755
 40
0.5757575757575755
 40
0.5757575757575755
 40
0.6060606060606057
 40
0.6060606060606057
 40
0.6060606060606057
 40
0.6060606060606057
 40
0.636363636363636
 40
0.636363636363636
 40
0.636363636363636
 40
0.636363636363636
 40
0.6666666666666663
 40
0.6666666666666663
 40
0.6666666666666663
 40
0.6666666666666663
 40
0.6969696969696966
 40
0.6969696969696966
 40
0.6969696969696966
 40
0.6969696969696966
 40
0.7272727272727268
 40
0.7272727272727268
 40
0.7272727272727268
 40
0.7272727272727268
 40
0.7575757575757571
 40
0.7575757575757571
 40
0.7575757575757571
 40
0.7575757575757571
 40
0.7878787878787874
 40
0.7878787878787874
 40
0.7878787878787874
 40
0.7878787878787874
 40
0.8181818181818177
 40
0.8181818181818177
 40
0.8181818181818177
 40
0.8181818181818177
 40
0.848484848484848
 40
0.848484848484848
 40
0.848484848484848
 40
0.848484848484848
 40
0.8787878787878782
 40
0.8787878787878782
 40
0.8787878787878782
 40
0.8787878787878782
 40
0.9090909090909085
 40
0.9090909090909085
 40
0.9090909090909085
 40
0.9090909090909085
 40
0.9393939393939388
 40
0.9393939393939388
 40
0.9393939393939388
 40
0.9393939393939388
 40
0.9696969696969691
 40
0.9696969696969691
 40
0.9696969696969691
 40
0.9696969696969691
 40
1.0
 40
1.0
 40
1.0
 40
1.0
 10
2.34942
 20
11.68469
 30
0.0
 10
2.35006
 20
11.68549
 30
0.0
 10
2.34998
 20
11.68621
 30
0.0
 10
2.34917
 20
11.68685
 30
0.0
 10
2.34917
 20
11.68685
 30
0.0
 10
2.33548
 20
11.69676
 30
0.0
 10
2.32041
 20
11.70312
 30
0.0
 10
2.30398
 20
11.7059
 30
0.0
 10
2.30398
 20
11.7059
 30
0.0
 10
2.28753
 20
11.70867
 30
0.0
 10
2.27122
 20
11.70842
 30
0.0
 10
2.25501
 20
11.70511
 30
0.0
 10
2.25501
 20
11.70511
 30
0.0
 10
2.23881
 20
11.70182
 30
0.0
 10
2.22341
 20
11.69583
 30
0.0
 10
2.20882
 20
11.68716
 30
0.0
 10
2.20882
 20
11.68716
 30
0.0
 10
2.19423
 20
11.67849
 30
0.0
 10
2.18183
 20
11.66775
 30
0.0
 10
2.17163
 20
11.65493
 30
0.0
 10
2.17163
 20
11.65493
 30
0.0
 10
2.17163
 20
11.65493
 30
0.0
 10
2.17068
 20
11.65373
 30
0.0
 10
2.17068
 20
11.65373
 30
0.0
 10
2.17068
 20
11.65373
 30
0.0
 10
2.16158
 20
11.64231
 30
0.0
 10
2.1545
 20
11.62971
 30
0.0
 10
2.14942
 20
11.61593
 30
0.0
 10
2.14942
 20
11.61593
 30
0.0
 10
2.14433
 20
11.60214
 30
0.0
 10
2.14139
 20
11.58796
 30
0.0
 10
2.14059
 20
11.57339
 30
0.0
 10
2.14059
 20
11.57339
 30
0.0
 10
2.13978
 20
11.55882
 30
0.0
 10
2.14124
 20
11.5444
 30
0.0
 10
2.14495
 20
11.53016
 30
0.0
 10
2.14495
 20
11.53016
 30
0.0
 10
2.14867
 20
11.51592
 30
0.0
 10
2.15483
 20
11.50291
 30
0.0
 10
2.16345
 20
11.49114
 30
0.0
 10
2.16345
 20
11.49114
 30
0.0
 10
2.16566
 20
11.48775
 30
0.0
 10
2.16813
 20
11.48489
 30
0.0
 10
2.17086
 20
11.48255
 30
0.0
 10
2.17086
 20
11.48255
 30
0.0
 10
2.17358
 20
11.48022
 30
0.0
 10
2.17646
 20
11.47768
 30
0.0
 10
2.17951
 20
11.47493
 30
0.0
 10
2.17951
 20
11.47493
 30
0.0
 10
2.18031
 20
11.4743
 30
0.0
 10
2.18103
 20
11.47438
 30
0.0
 10
2.18166
 20
11.47517
 30
0.0
 10
2.18166
 20
11.47517
 30
0.0
 10
2.18166
 20
11.47517
 30
0.0
 10
2.21108
 20
11.51213
 30
0.0
 10
2.21108
 20
11.51213
 30
0.0
 10
2.21108
 20
11.51213
 30
0.0
 10
2.21171
 20
11.51293
 30
0.0
 10
2.21164
 20
11.51365
 30
0.0
 10
2.21084
 20
11.51429
 30
0.0
 10
2.21084
 20
11.51429
 30
0.0
 10
2.20426
 20
11.52083
 30
0.0
 10
2.19966
 20
11.52809
 30
0.0
 10
2.19701
 20
11.53608
 30
0.0
 10
2.19701
 20
11.53608
 30
0.0
 10
2.19438
 20
11.54407
 30
0.0
 10
2.19341
 20
11.5522
 30
0.0
 10
2.19411
 20
11.56048
 30
0.0
 10
2.19411
 20
11.56048
 30
0.0
 10
2.19481
 20
11.56875
 30
0.0
 10
2.19693
 20
11.57697
 30
0.0
 10
2.20047
 20
11.58511
 30
0.0
 10
2.20047
 20
11.58511
 30
0.0
 10
2.20401
 20
11.59326
 30
0.0
 10
2.20841
 20
11.60063
 30
0.0
 10
2.21367
 20
11.60724
 30
0.0
 10
2.21367
 20
11.60724
 30
0.0
 10
2.21478
 20
11.60864
 30
0.0
 10
2.21594
 20
11.61001
 30
0.0
 10
2.21716
 20
11.61133
 30
0.0
 10
2.21716
 20
11.61133
 30
0.0
 10
2.21838
 20
11.61264
 30
0.0
 10
2.21965
 20
11.61393
 30
0.0
 10
2.22097
 20
11.61517
 30
0.0
 10
2.22097
 20
11.61517
 30
0.0
 10
2.22176
 20
11.61617
 30
0.0
 10
2.2225
 20
11.61722
 30
0.0
 10
2.22321
 20
11.6183
 30
0.0
 10
2.22321
 20
11.6183
 30
0.0
 10
2.2239
 20
11.61938
 30
0.0
 10
2.22465
 20
11.62042
 30
0.0
 10
2.22544
 20
11.62143
 30
0.0
 10
2.22544
 20
11.62143
 30
0.0
 10
2.23086
 20
11.62823
 30
0.0
 10
2.23721
 20
11.63446
 30
0.0
 10
2.2445
 20
11.64011
 30
0.0
 10
2.2445
 20
11.64011
 30
0.0
 10
2.25178
 20
11.64577
 30
0.0
 10
2.25948
 20
11.65011
 30
0.0
 10
2.26761
 20
11.65312
 30
0.0
 10
2.26761
 20
11.65312
 30
0.0
 10
2.27574
 20
11.65615
 30
0.0
 10
2.28407
 20
11.65745
 30
0.0
 10
2.29258
 20
11.65706
 30
0.0
 10
2.29258
 20
11.65706
 30
0.0
 10
2.3011
 20
11.65666
 30
0.0
 10
2.30932
 20
11.65363
 30
0.0
 10
2.31725
 20
11.64797
 30
0.0
 10
2.31725
 20
11.64797
 30
0.0
 10
2.31805
 20
11.64733
 30
0.0
 10
2.31876
 20
11.64741
 30
0.0
 10
2.3194
 20
11.64822
 30
0.0
 10
2.3194
 20
11.64822
 30
0.0
 10
2.3194
 20
11.64822
 30
0.0
 10
2.31964
 20
11.64851
 30
0.0
 10
2.31964
 20
11.64851
 30
0.0
 10
2.31964
 20
11.64851
 30
0.0
 10
2.3222
 20
11.65172
 30
0.0
 10
2.32472
 20
11.65479
 30
0.0
 10
2.32721
 20
11.65771
 30
0.0
 10
2.32721
 20
11.65771
 30
0.0
 10
2.3297
 20
11.66064
 30
0.0
 10
2.33222
 20
11.66369
 30
0.0
 10
2.33478
 20
11.6669
 30
0.0
 10
2.33478
 20
11.6669
 30
0.0
 10
2.33732
 20
11.6701
 30
0.0
 10
2.33971
 20
11.67311
 30
0.0
 10
2.34195
 20
11.67591
 30
0.0
 10
2.34195
 20
11.67591
 30
0.0
 10
2.34434
 20
11.67892
 30
0.0
 10
2.34683
 20
11.68185
 30
0.0
 10
2.34942
 20
11.68469
 30
0.0
  0
SPLINE
  5
66
330
1F
100
AcDbEntity
  8
Warstwa 1
 62
   250
100
AcDbSpline
210
0.0
220
0.0
230
1.0
 70
    11
 71
     3
 72
   256
 73
   252
 74
     0
 42
0.0000000001
 43
0.0000000001
 40
0.0
 40
0.0
 40
0.0
 40
0.0
 40
0.0158730158730159
 40
0.0158730158730159
 40
0.0158730158730159
 40
0.0158730158730159
 40
0.0317460317460317
 40
0.0317460317460317
 40
0.0317460317460317
 40
0.0317460317460317
 40
0.0476190476190476
 40
0.0476190476190476
 40
0.0476190476190476
 40
0.0476190476190476
 40
0.0634920634920635
 40
0.0634920634920635
 40
0.0634920634920635
 40
0.0634920634920635
 40
0.0793650793650794
 40
0.0793650793650794
 40
0.0793650793650794
 40
0.0793650793650794
 40
0.0952380952380952
 40
0.0952380952380952
 40
0.0952380952380952
 40
0.0952380952380952
 40
0.1111111111111111
 40
0.1111111111111111
 40
0.1111111111111111
 40
0.1111111111111111
 40
0.126984126984127
 40
0.126984126984127
 40
0.126984126984127
 40
0.126984126984127
 40
0.1428571428571428
 40
0.1428571428571428
 40
0.1428571428571428
 40
0.1428571428571428
 40
0.1587301587301587
 40
0.1587301587301587
 40
0.1587301587301587
 40
0.1587301587301587
 40
0.1746031746031746
 40
0.1746031746031746
 40
0.1746031746031746
 40
0.1746031746031746
 40
0.1904761904761905
 40
0.1904761904761905
 40
0.1904761904761905
 40
0.1904761904761905
 40
0.2063492063492063
 40
0.2063492063492063
 40
0.2063492063492063
 40
0.2063492063492063
 40
0.2222222222222222
 40
0.2222222222222222
 40
0.2222222222222222
 40
0.2222222222222222
 40
0.2380952380952381
 40
0.2380952380952381
 40
0.2380952380952381
 40
0.2380952380952381
 40
0.253968253968254
 40
0.253968253968254
 40
0.253968253968254
 40
0.253968253968254
 40
0.2698412698412698
 40
0.2698412698412698
 40
0.2698412698412698
 40
0.2698412698412698
 40
0.2857142857142857
 40
0.2857142857142857
 40
0.2857142857142857
 40
0.2857142857142857
 40
0.3015873015873016
 40
0.3015873015873016
 40
0.3015873015873016
 40
0.3015873015873016
 40
0.3174603174603174
 40
0.3174603174603174
 40
0.3174603174603174
 40
0.3174603174603174
 40
0.3333333333333333
 40
0.3333333333333333
 40
0.3333333333333333
 40
0.3333333333333333
 40
0.3492063492063492
 40
0.3492063492063492
 40
0.3492063492063492
 40
0.3492063492063492
 40
0.3650793650793651
 40
0.3650793650793651
 40
0.3650793650793651
 40
0.3650793650793651
 40
0.3809523809523809
 40
0.3809523809523809
 40
0.3809523809523809
 40
0.3809523809523809
 40
0.3968253968253968
 40
0.3968253968253968
 40
0.3968253968253968
 40
0.3968253968253968
 40
0.4126984126984127
 40
0.4126984126984127
 40
0.4126984126984127
 40
0.4126984126984127
 40
0.4285714285714285
 40
0.4285714285714285
 40
0.4285714285714285
 40
0.4285714285714285
 40
0.4444444444444444
 40
0.4444444444444444
 40
0.4444444444444444
 40
0.4444444444444444
 40
0.4603174603174603
 40
0.4603174603174603
 40
0.4603174603174603
 40
0.4603174603174603
 40
0.4761904761904762
 40
0.4761904761904762
 40
0.4761904761904762
 40
0.4761904761904762
 40
0.492063492063492
 40
0.492063492063492
 40
0.492063492063492
 40
0.492063492063492
 40
0.5079365079365079
 40
0.5079365079365079
 40
0.5079365079365079
 40
0.5079365079365079
 40
0.5238095238095237
 40
0.5238095238095237
 40
0.5238095238095237
 40
0.5238095238095237
 40
0.5396825396825395
 40
0.5396825396825395
 40
0.5396825396825395
 40
0.5396825396825395
 40
0.5555555555555554
 40
0.5555555555555554
 40
0.5555555555555554
 40
0.5555555555555554
 40
0.5714285714285712
 40
0.5714285714285712
 40
0.5714285714285712
 40
0.5714285714285712
 40
0.587301587301587
 40
0.587301587301587
 40
0.587301587301587
 40
0.587301587301587
 40
0.6031746031746028
 40
0.6031746031746028
 40
0.6031746031746028
 40
0.6031746031746028
 40
0.6190476190476186
 40
0.6190476190476186
 40
0.6190476190476186
 40
0.6190476190476186
 40
0.6349206349206344
 40
0.6349206349206344
 40
0.6349206349206344
 40
0.6349206349206344
 40
0.6507936507936503
 40
0.6507936507936503
 40
0.6507936507936503
 40
0.6507936507936503
 40
0.6666666666666661
 40
0.6666666666666661
 40
0.6666666666666661
 40
0.6666666666666661
 40
0.6825396825396819
 40
0.6825396825396819
 40
0.6825396825396819
 40
0.6825396825396819
 40
0.6984126984126977
 40
0.6984126984126977
 40
0.6984126984126977
 40
0.6984126984126977
 40
0.7142857142857135
 40
0.7142857142857135
 40
0.7142857142857135
 40
0.7142857142857135
 40
0.7301587301587293
 40
0.7301587301587293
 40
0.7301587301587293
 40
0.7301587301587293
 40
0.7460317460317452
 40
0.7460317460317452
 40
0.7460317460317452
 40
0.7460317460317452
 40
0.761904761904761
 40
0.761904761904761
 40
0.761904761904761
 40
0.761904761904761
 40
0.7777777777777768
 40
0.7777777777777768
 40
0.7777777777777768
 40
0.7777777777777768
 40
0.7936507936507926
 40
0.7936507936507926
 40
0.7936507936507926
 40
0.7936507936507926
 40
0.8095238095238084
 40
0.8095238095238084
 40
0.8095238095238084
 40
0.8095238095238084
 40
0.8253968253968242
 40
0.8253968253968242
 40
0.8253968253968242
 40
0.8253968253968242
 40
0.8412698412698401
 40
0.8412698412698401
 40
0.8412698412698401
 40
0.8412698412698401
 40
0.8571428571428559
 40
0.8571428571428559
 40
0.8571428571428559
 40
0.8571428571428559
 40
0.8730158730158717
 40
0.8730158730158717
 40
0.8730158730158717
 40
0.8730158730158717
 40
0.8888888888888875
 40
0.8888888888888875
 40
0.8888888888888875
 40
0.8888888888888875
 40
0.9047619047619033
 40
0.9047619047619033
 40
0.9047619047619033
 40
0.9047619047619033
 40
0.9206349206349191
 40
0.9206349206349191
 40
0.9206349206349191
 40
0.9206349206349191
 40
0.936507936507935
 40
0.936507936507935
 40
0.936507936507935
 40
0.936507936507935
 40
0.9523809523809508
 40
0.9523809523809508
 40
0.9523809523809508
 40
0.9523809523809508
 40
0.9682539682539666
 40
0.9682539682539666
 40
0.9682539682539666
 40
0.9682539682539666
 40
0.9841269841269824
 40
0.9841269841269824
 40
0.9841269841269824
 40
0.9841269841269824
 40
1.0
 40
1.0
 40
1.0
 40
1.0
 10
2.54322
 20
11.20996
 30
0.0
 10
2.54611
 20
11.2214
 30
0.0
 10
2.55094
 20
11.23178
 30
0.0
 10
2.55772
 20
11.24112
 30
0.0
 10
2.55772
 20
11.24112
 30
0.0
 10
2.5582
 20
11.24172
 30
0.0
 10
2.55868
 20
11.24232
 30
0.0
 10
2.55915
 20
11.24291
 30
0.0
 10
2.55915
 20
11.24291
 30
0.0
 10
2.55979
 20
11.24372
 30
0.0
 10
2.56024
 20
11.2445
 30
0.0
 10
2.56053
 20
11.24526
 30
0.0
 10
2.56053
 20
11.24526
 30
0.0
 10
2.56431
 20
11.25043
 30
0.0
 10
2.5682
 20
11.25592
 30
0.0
 10
2.57218
 20
11.26175
 30
0.0
 10
2.57218
 20
11.26175
 30
0.0
 10
2.57616
 20
11.26758
 30
0.0
 10
2.5794
 20
11.27359
 30
0.0
 10
2.58188
 20
11.27979
 30
0.0
 10
2.58188
 20
11.27979
 30
0.0
 10
2.58437
 20
11.28599
 30
0.0
 10
2.58583
 20
11.29236
 30
0.0
 10
2.58627
 20
11.29887
 30
0.0
 10
2.58627
 20
11.29887
 30
0.0
 10
2.58672
 20
11.30539
 30
0.0
 10
2.58518
 20
11.31201
 30
0.0
 10
2.58169
 20
11.31871
 30
0.0
 10
2.58169
 20
11.31871
 30
0.0
 10
2.58169
 20
11.31871
 30
0.0
 10
2.58037
 20
11.32075
 30
0.0
 10
2.58037
 20
11.32075
 30
0.0
 10
2.58037
 20
11.32075
 30
0.0
 10
2.58581
 20
11.31772
 30
0.0
 10
2.59159
 20
11.31614
 30
0.0
 10
2.59771
 20
11.31602
 30
0.0
 10
2.59771
 20
11.31602
 30
0.0
 10
2.60383
 20
11.3159
 30
0.0
 10
2.60983
 20
11.31676
 30
0.0
 10
2.61572
 20
11.31861
 30
0.0
 10
2.61572
 20
11.31861
 30
0.0
 10
2.62162
 20
11.32046
 30
0.0
 10
2.62714
 20
11.32319
 30
0.0
 10
2.63228
 20
11.32678
 30
0.0
 10
2.63228
 20
11.32678
 30
0.0
 10
2.63743
 20
11.33037
 30
0.0
 10
2.64184
 20
11.33447
 30
0.0
 10
2.64551
 20
11.33908
 30
0.0
 10
2.64551
 20
11.33908
 30
0.0
 10
2.64551
 20
11.33908
 30
0.0
 10
2.64742
 20
11.34148
 30
0.0
 10
2.64742
 20
11.34148
 30
0.0
 10
2.64742
 20
11.34148
 30
0.0
 10
2.65555
 20
11.35169
 30
0.0
 10
2.66055
 20
11.36383
 30
0.0
 10
2.66242
 20
11.37788
 30
0.0
 10
2.66242
 20
11.37788
 30
0.0
 10
2.66428
 20
11.39194
 30
0.0
 10
2.66233
 20
11.40584
 30
0.0
 10
2.65658
 20
11.41958
 30
0.0
 10
2.65658
 20
11.41958
 30
0.0
 10
2.65256
 20
11.42932
 30
0.0
 10
2.64689
 20
11.43793
 30
0.0
 10
2.63958
 20
11.44538
 30
0.0
 10
2.63958
 20
11.44538
 30
0.0
 10
2.63227
 20
11.45284
 30
0.0
 10
2.6244
 20
11.45992
 30
0.0
 10
2.61599
 20
11.46661
 30
0.0
 10
2.61599
 20
11.46661
 30
0.0
 10
2.61379
 20
11.46837
 30
0.0
 10
2.6116
 20
11.47003
 30
0.0
 10
2.60941
 20
11.47161
 30
0.0
 10
2.60941
 20
11.47161
 30
0.0
 10
2.60723
 20
11.47317
 30
0.0
 10
2.60504
 20
11.47485
 30
0.0
 10
2.60284
 20
11.4766
 30
0.0
 10
2.60284
 20
11.4766
 30
0.0
 10
2.60244
 20
11.47691
 30
0.0
 10
2.60171
 20
11.47683
 30
0.0
 10
2.60067
 20
11.47635
 30
0.0
 10
2.60067
 20
11.47635
 30
0.0
 10
2.59553
 20
11.47029
 30
0.0
 10
2.59043
 20
11.4643
 30
0.0
 10
2.58537
 20
11.45836
 30
0.0
 10
2.58537
 20
11.45836
 30
0.0
 10
2.58031
 20
11.4524
 30
0.0
 10
2.5752
 20
11.44641
 30
0.0
 10
2.57006
 20
11.44035
 30
0.0
 10
2.57006
 20
11.44035
 30
0.0
 10
2.56943
 20
11.43955
 30
0.0
 10
2.56951
 20
11.43884
 30
0.0
 10
2.57031
 20
11.4382
 30
0.0
 10
2.57031
 20
11.4382
 30
0.0
 10
2.57031
 20
11.4382
 30
0.0
 10
2.57151
 20
11.43724
 30
0.0
 10
2.57151
 20
11.43724
 30
0.0
 10
2.57151
 20
11.43724
 30
0.0
 10
2.57312
 20
11.43596
 30
0.0
 10
2.5748
 20
11.4347
 30
0.0
 10
2.57658
 20
11.43345
 30
0.0
 10
2.57658
 20
11.43345
 30
0.0
 10
2.57837
 20
11.43219
 30
0.0
 10
2.58014
 20
11.43103
 30
0.0
 10
2.5819
 20
11.42995
 30
0.0
 10
2.5819
 20
11.42995
 30
0.0
 10
2.58366
 20
11.42887
 30
0.0
 10
2.58515
 20
11.42786
 30
0.0
 10
2.58634
 20
11.42691
 30
0.0
 10
2.58634
 20
11.42691
 30
0.0
 10
2.58755
 20
11.42595
 30
0.0
 10
2.58895
 20
11.42483
 30
0.0
 10
2.59055
 20
11.42356
 30
0.0
 10
2.59055
 20
11.42356
 30
0.0
 10
2.59055
 20
11.42356
 30
0.0
 10
2.59626
 20
11.41901
 30
0.0
 10
2.59626
 20
11.41901
 30
0.0
 10
2.59626
 20
11.41901
 30
0.0
 10
2.59906
 20
11.41678
 30
0.0
 10
2.60177
 20
11.41422
 30
0.0
 10
2.60437
 20
11.41133
 30
0.0
 10
2.60437
 20
11.41133
 30
0.0
 10
2.60698
 20
11.40843
 30
0.0
 10
2.60867
 20
11.40521
 30
0.0
 10
2.60943
 20
11.40165
 30
0.0
 10
2.60943
 20
11.40165
 30
0.0
 10
2.60969
 20
11.39622
 30
0.0
 10
2.60895
 20
11.39181
 30
0.0
 10
2.60725
 20
11.38842
 30
0.0
 10
2.60725
 20
11.38842
 30
0.0
 10
2.60554
 20
11.38504
 30
0.0
 10
2.60377
 20
11.38179
 30
0.0
 10
2.60194
 20
11.37867
 30
0.0
 10
2.60194
 20
11.37867
 30
0.0
 10
2.60194
 20
11.37867
 30
0.0
 10
2.59978
 20
11.37596
 30
0.0
 10
2.59978
 20
11.37596
 30
0.0
 10
2.59978
 20
11.37596
 30
0.0
 10
2.59707
 20
11.37256
 30
0.0
 10
2.59405
 20
11.36907
 30
0.0
 10
2.59073
 20
11.3655
 30
0.0
 10
2.59073
 20
11.3655
 30
0.0
 10
2.5874
 20
11.36194
 30
0.0
 10
2.58381
 20
11.35939
 30
0.0
 10
2.57998
 20
11.35786
 30
0.0
 10
2.57998
 20
11.35786
 30
0.0
 10
2.57998
 20
11.35786
 30
0.0
 10
2.58022
 20
11.35816
 30
0.0
 10
2.58022
 20
11.35816
 30
0.0
 10
2.58022
 20
11.35816
 30
0.0
 10
2.5735
 20
11.35795
 30
0.0
 10
2.56806
 20
11.35893
 30
0.0
 10
2.5639
 20
11.36109
 30
0.0
 10
2.5639
 20
11.36109
 30
0.0
 10
2.55973
 20
11.36326
 30
0.0
 10
2.55585
 20
11.36578
 30
0.0
 10
2.55225
 20
11.36866
 30
0.0
 10
2.55225
 20
11.36866
 30
0.0
 10
2.55225
 20
11.36866
 30
0.0
 10
2.52881
 20
11.38731
 30
0.0
 10
2.52881
 20
11.38731
 30
0.0
 10
2.52881
 20
11.38731
 30
0.0
 10
2.52802
 20
11.38794
 30
0.0
 10
2.52737
 20
11.38796
 30
0.0
 10
2.52689
 20
11.38735
 30
0.0
 10
2.52689
 20
11.38735
 30
0.0
 10
2.5245
 20
11.38435
 30
0.0
 10
2.52198
 20
11.38129
 30
0.0
 10
2.51933
 20
11.37816
 30
0.0
 10
2.51933
 20
11.37816
 30
0.0
 10
2.51669
 20
11.37504
 30
0.0
 10
2.51408
 20
11.37188
 30
0.0
 10
2.51152
 20
11.36867
 30
0.0
 10
2.51152
 20
11.36867
 30
0.0
 10
2.50898
 20
11.36547
 30
0.0
 10
2.5065
 20
11.36236
 30
0.0
 10
2.50411
 20
11.35936
 30
0.0
 10
2.50411
 20
11.35936
 30
0.0
 10
2.50172
 20
11.35635
 30
0.0
 10
2.49908
 20
11.35323
 30
0.0
 10
2.49616
 20
11.34998
 30
0.0
 10
2.49616
 20
11.34998
 30
0.0
 10
2.49553
 20
11.34918
 30
0.0
 10
2.49561
 20
11.34847
 30
0.0
 10
2.49641
 20
11.34782
 30
0.0
 10
2.49641
 20
11.34782
 30
0.0
 10
2.49641
 20
11.34782
 30
0.0
 10
2.49851
 20
11.34615
 30
0.0
 10
2.49851
 20
11.34615
 30
0.0
 10
2.49851
 20
11.34615
 30
0.0
 10
2.49992
 20
11.34503
 30
0.0
 10
2.50122
 20
11.34391
 30
0.0
 10
2.50245
 20
11.34277
 30
0.0
 10
2.50245
 20
11.34277
 30
0.0
 10
2.50367
 20
11.34164
 30
0.0
 10
2.50501
 20
11.34033
 30
0.0
 10
2.50644
 20
11.33886
 30
0.0
 10
2.50644
 20
11.33886
 30
0.0
 10
2.50728
 20
11.33786
 30
0.0
 10
2.50822
 20
11.33687
 30
0.0
 10
2.50924
 20
11.33589
 30
0.0
 10
2.50924
 20
11.33589
 30
0.0
 10
2.51026
 20
11.33492
 30
0.0
 10
2.51138
 20
11.33395
 30
0.0
 10
2.51257
 20
11.33299
 30
0.0
 10
2.51257
 20
11.33299
 30
0.0
 10
2.51666
 20
11.32909
 30
0.0
 10
2.52006
 20
11.32441
 30
0.0
 10
2.52278
 20
11.31898
 30
0.0
 10
2.52278
 20
11.31898
 30
0.0
 10
2.52549
 20
11.31356
 30
0.0
 10
2.52589
 20
11.308
 30
0.0
 10
2.52399
 20
11.30232
 30
0.0
 10
2.52399
 20
11.30232
 30
0.0
 10
2.52399
 20
11.30232
 30
0.0
 10
2.52422
 20
11.30262
 30
0.0
 10
2.52422
 20
11.30262
 30
0.0
 10
2.52422
 20
11.30262
 30
0.0
 10
2.522
 20
11.29654
 30
0.0
 10
2.51958
 20
11.29135
 30
0.0
 10
2.51697
 20
11.28704
 30
0.0
 10
2.51697
 20
11.28704
 30
0.0
 10
2.51437
 20
11.28274
 30
0.0
 10
2.51181
 20
11.27881
 30
0.0
 10
2.5093
 20
11.27523
 30
0.0
 10
2.5093
 20
11.27523
 30
0.0
 10
2.5087
 20
11.27408
 30
0.0
 10
2.50814
 20
11.27305
 30
0.0
 10
2.5076
 20
11.27218
 30
0.0
 10
2.5076
 20
11.27218
 30
0.0
 10
2.50706
 20
11.27129
 30
0.0
 10
2.5064
 20
11.27035
 30
0.0
 10
2.5056
 20
11.26935
 30
0.0
 10
2.5056
 20
11.26935
 30
0.0
 10
2.49935
 20
11.25862
 30
0.0
 10
2.49478
 20
11.24754
 30
0.0
 10
2.49189
 20
11.2361
 30
0.0
 10
2.49189
 20
11.2361
 30
0.0
 10
2.49196
 20
11.23538
 30
0.0
 10
2.49221
 20
11.23486
 30
0.0
 10
2.49261
 20
11.23454
 30
0.0
 10
2.49261
 20
11.23454
 30
0.0
 10
2.50046
 20
11.2296
 30
0.0
 10
2.50837
 20
11.22494
 30
0.0
 10
2.51633
 20
11.22057
 30
0.0
 10
2.51633
 20
11.22057
 30
0.0
 10
2.5243
 20
11.21618
 30
0.0
 10
2.53248
 20
11.21229
 30
0.0
 10
2.54088
 20
11.20887
 30
0.0
 10
2.54088
 20
11.20887
 30
0.0
 10
2.5422
 20
11.20847
 30
0.0
 10
2.54298
 20
11.20884
 30
0.0
 10
2.54322
 20
11.20996
 30
0.0
  0
SPLINE
  5
67
330
1F
100
AcDbEntity
  8
Warstwa 1
 62
   250
100
AcDbSpline
210
0.0
220
0.0
230
1.0
 70
    11
 71
     3
 72
    52
 73
    48
 74
     0
 42
0.0000000001
 43
0.0000000001
 40
0.0
 40
0.0
 40
0.0
 40
0.0
 40
0.0833333333333333
 40
0.0833333333333333
 40
0.0833333333333333
 40
0.0833333333333333
 40
0.1666666666666667
 40
0.1666666666666667
 40
0.1666666666666667
 40
0.1666666666666667
 40
0.25
 40
0.25
 40
0.25
 40
0.25
 40
0.3333333333333333
 40
0.3333333333333333
 40
0.3333333333333333
 40
0.3333333333333333
 40
0.4166666666666666
 40
0.4166666666666666
 40
0.4166666666666666
 40
0.4166666666666666
 40
0.4999999999999999
 40
0.4999999999999999
 40
0.4999999999999999
 40
0.4999999999999999
 40
0.5833333333333333
 40
0.5833333333333333
 40
0.5833333333333333
 40
0.5833333333333333
 40
0.6666666666666666
 40
0.6666666666666666
 40
0.6666666666666666
 40
0.6666666666666666
 40
0.75
 40
0.75
 40
0.75
 40
0.75
 40
0.8333333333333334
 40
0.8333333333333334
 40
0.8333333333333334
 40
0.8333333333333334
 40
0.9166666666666667
 40
0.9166666666666667
 40
0.9166666666666667
 40
0.9166666666666667
 40
1.0
 40
1.0
 40
1.0
 40
1.0
 10
2.42434
 20
11.29182
 30
0.0
 10
2.44733
 20
11.32686
 30
0.0
 10
2.47229
 20
11.3613
 30
0.0
 10
2.49923
 20
11.39515
 30
0.0
 10
2.49923
 20
11.39515
 30
0.0
 10
2.52506
 20
11.42759
 30
0.0
 10
2.55238
 20
11.45884
 30
0.0
 10
2.58122
 20
11.4889
 30
0.0
 10
2.58122
 20
11.4889
 30
0.0
 10
2.58185
 20
11.4897
 30
0.0
 10
2.58167
 20
11.49049
 30
0.0
 10
2.58067
 20
11.49129
 30
0.0
 10
2.58067
 20
11.49129
 30
0.0
 10
2.57346
 20
11.49539
 30
0.0
 10
2.56604
 20
11.49942
 30
0.0
 10
2.5584
 20
11.50338
 30
0.0
 10
2.5584
 20
11.50338
 30
0.0
 10
2.55075
 20
11.50734
 30
0.0
 10
2.543
 20
11.51097
 30
0.0
 10
2.53516
 20
11.51426
 30
0.0
 10
2.53516
 20
11.51426
 30
0.0
 10
2.53516
 20
11.51426
 30
0.0
 10
2.53354
 20
11.51408
 30
0.0
 10
2.53354
 20
11.51408
 30
0.0
 10
2.53354
 20
11.51408
 30
0.0
 10
2.50297
 20
11.48966
 30
0.0
 10
2.47494
 20
11.46143
 30
0.0
 10
2.44944
 20
11.42939
 30
0.0
 10
2.44944
 20
11.42939
 30
0.0
 10
2.42584
 20
11.39974
 30
0.0
 10
2.40561
 20
11.36775
 30
0.0
 10
2.38875
 20
11.33341
 30
0.0
 10
2.38875
 20
11.33341
 30
0.0
 10
2.38827
 20
11.33281
 30
0.0
 10
2.38833
 20
11.33227
 30
0.0
 10
2.38893
 20
11.33179
 30
0.0
 10
2.38893
 20
11.33179
 30
0.0
 10
2.3939
 20
11.32489
 30
0.0
 10
2.39913
 20
11.3181
 30
0.0
 10
2.40463
 20
11.31144
 30
0.0
 10
2.40463
 20
11.31144
 30
0.0
 10
2.41013
 20
11.30477
 30
0.0
 10
2.41598
 20
11.29816
 30
0.0
 10
2.42219
 20
11.29158
 30
0.0
 10
2.42219
 20
11.29158
 30
0.0
 10
2.42299
 20
11.29094
 30
0.0
 10
2.42371
 20
11.29102
 30
0.0
 10
2.42434
 20
11.29182
 30
0.0
  0
SPLINE
  5
68
330
1F
100
AcDbEntity
  8
Warstwa 1
 62
   250
100
AcDbSpline
210
0.0
220
0.0
230
1.0
 70
    11
 71
     3
 72
    72
 73
    68
 74
     0
 42
0.0000000001
 43
0.0000000001
 40
0.0
 40
0.0
 40
0.0
 40
0.0
 40
0.0588235294117647
 40
0.0588235294117647
 40
0.0588235294117647
 40
0.0588235294117647
 40
0.1176470588235294
 40
0.1176470588235294
 40
0.1176470588235294
 40
0.1176470588235294
 40
0.1764705882352941
 40
0.1764705882352941
 40
0.1764705882352941
 40
0.1764705882352941
 40
0.2352941176470588
 40
0.2352941176470588
 40
0.2352941176470588
 40
0.2352941176470588
 40
0.2941176470588235
 40
0.2941176470588235
 40
0.2941176470588235
 40
0.2941176470588235
 40
0.3529411764705883
 40
0.3529411764705883
 40
0.3529411764705883
 40
0.3529411764705883
 40
0.411764705882353
 40
0.411764705882353
 40
0.411764705882353
 40
0.411764705882353
 40
0.4705882352941177
 40
0.4705882352941177
 40
0.4705882352941177
 40
0.4705882352941177
 40
0.5294117647058824
 40
0.5294117647058824
 40
0.5294117647058824
 40
0.5294117647058824
 40
0.5882352941176471
 40
0.5882352941176471
 40
0.5882352941176471
 40
0.5882352941176471
 40
0.6470588235294118
 40
0.6470588235294118
 40
0.6470588235294118
 40
0.6470588235294118
 40
0.7058823529411765
 40
0.7058823529411765
 40
0.7058823529411765
 40
0.7058823529411765
 40
0.7647058823529412
 40
0.7647058823529412
 40
0.7647058823529412
 40
0.7647058823529412
 40
0.823529411764706
 40
0.823529411764706
 40
0.823529411764706
 40
0.823529411764706
 40
0.8823529411764707
 40
0.8823529411764707
 40
0.8823529411764707
 40
0.8823529411764707
 40
0.9411764705882354
 40
0.9411764705882354
 40
0.9411764705882354
 40
0.9411764705882354
 40
1.0
 40
1.0
 40
1.0
 40
1.0
 10
2.88639
 20
11.1812
 30
0.0
 10
2.88639
 20
11.1812
 30
0.0
 10
2.89296
 20
11.19314
 30
0.0
 10
2.89296
 20
11.19314
 30
0.0
 10
2.89296
 20
11.19314
 30
0.0
 10
2.89523
 20
11.19723
 30
0.0
 10
2.89755
 20
11.20128
 30
0.0
 10
2.89991
 20
11.20528
 30
0.0
 10
2.89991
 20
11.20528
 30
0.0
 10
2.90228
 20
11.20928
 30
0.0
 10
2.90442
 20
11.2133
 30
0.0
 10
2.90633
 20
11.21734
 30
0.0
 10
2.90633
 20
11.21734
 30
0.0
 10
2.90681
 20
11.21794
 30
0.0
 10
2.90675
 20
11.21848
 30
0.0
 10
2.90615
 20
11.21896
 30
0.0
 10
2.90615
 20
11.21896
 30
0.0
 10
2.8978
 20
11.2315
 30
0.0
 10
2.88856
 20
11.24311
 30
0.0
 10
2.87842
 20
11.2538
 30
0.0
 10
2.87842
 20
11.2538
 30
0.0
 10
2.86828
 20
11.26449
 30
0.0
 10
2.8572
 20
11.27461
 30
0.0
 10
2.84518
 20
11.28418
 30
0.0
 10
2.84518
 20
11.28418
 30
0.0
 10
2.84518
 20
11.28418
 30
0.0
 10
2.84188
 20
11.28681
 30
0.0
 10
2.84188
 20
11.28681
 30
0.0
 10
2.84188
 20
11.28681
 30
0.0
 10
2.84108
 20
11.28744
 30
0.0
 10
2.84036
 20
11.28737
 30
0.0
 10
2.83971
 20
11.28656
 30
0.0
 10
2.83971
 20
11.28656
 30
0.0
 10
2.83732
 20
11.28356
 30
0.0
 10
2.83488
 20
11.28059
 30
0.0
 10
2.83239
 20
11.27767
 30
0.0
 10
2.83239
 20
11.27767
 30
0.0
 10
2.8299
 20
11.27474
 30
0.0
 10
2.82754
 20
11.27188
 30
0.0
 10
2.82531
 20
11.26908
 30
0.0
 10
2.82531
 20
11.26908
 30
0.0
 10
2.82292
 20
11.26607
 30
0.0
 10
2.82045
 20
11.26297
 30
0.0
 10
2.8179
 20
11.25977
 30
0.0
 10
2.8179
 20
11.25977
 30
0.0
 10
2.81551
 20
11.25676
 30
0.0
 10
2.81302
 20
11.25384
 30
0.0
 10
2.81043
 20
11.25099
 30
0.0
 10
2.81043
 20
11.25099
 30
0.0
 10
2.80979
 20
11.25018
 30
0.0
 10
2.80987
 20
11.24947
 30
0.0
 10
2.81067
 20
11.24883
 30
0.0
 10
2.81067
 20
11.24883
 30
0.0
 10
2.81067
 20
11.24883
 30
0.0
 10
2.81578
 20
11.24477
 30
0.0
 10
2.81578
 20
11.24477
 30
0.0
 10
2.81578
 20
11.24477
 30
0.0
 10
2.82779
 20
11.2352
 30
0.0
 10
2.83946
 20
11.2251
 30
0.0
 10
2.85078
 20
11.21445
 30
0.0
 10
2.85078
 20
11.21445
 30
0.0
 10
2.8621
 20
11.2038
 30
0.0
 10
2.87307
 20
11.19261
 30
0.0
 10
2.88369
 20
11.18089
 30
0.0
 10
2.88369
 20
11.18089
 30
0.0
 10
2.88469
 20
11.18009
 30
0.0
 10
2.88559
 20
11.18019
 30
0.0
 10
2.88639
 20
11.1812
 30
0.0
  0
SPLINE
  5
69
330
1F
100
AcDbEntity
  8
Warstwa 1
 62
   250
100
AcDbSpline
210
0.0
220
0.0
230
1.0
 70
    11
 71
     3
 72
    56
 73
    52
 74
     0
 42
0.0000000001
 43
0.0000000001
 40
0.0
 40
0.0
 40
0.0
 40
0.0
 40
0.0769230769230769
 40
0.0769230769230769
 40
0.0769230769230769
 40
0.0769230769230769
 40
0.1538461538461539
 40
0.1538461538461539
 40
0.1538461538461539
 40
0.1538461538461539
 40
0.2307692307692308
 40
0.2307692307692308
 40
0.2307692307692308
 40
0.2307692307692308
 40
0.3076923076923077
 40
0.3076923076923077
 40
0.3076923076923077
 40
0.3076923076923077
 40
0.3846153846153846
 40
0.3846153846153846
 40
0.3846153846153846
 40
0.3846153846153846
 40
0.4615384615384616
 40
0.4615384615384616
 40
0.4615384615384616
 40
0.4615384615384616
 40
0.5384615384615385
 40
0.5384615384615385
 40
0.5384615384615385
 40
0.5384615384615385
 40
0.6153846153846154
 40
0.6153846153846154
 40
0.6153846153846154
 40
0.6153846153846154
 40
0.6923076923076923
 40
0.6923076923076923
 40
0.6923076923076923
 40
0.6923076923076923
 40
0.7692307692307692
 40
0.7692307692307692
 40
0.7692307692307692
 40
0.7692307692307692
 40
0.846153846153846
 40
0.846153846153846
 40
0.846153846153846
 40
0.846153846153846
 40
0.9230769230769229
 40
0.9230769230769229
 40
0.9230769230769229
 40
0.9230769230769229
 40
1.0
 40
1.0
 40
1.0
 40
1.0
 10
2.82539
 20
11.11197
 30
0.0
 10
2.83018
 20
11.11798
 30
0.0
 10
2.83488
 20
11.12388
 30
0.0
 10
2.8395
 20
11.12969
 30
0.0
 10
2.8395
 20
11.12969
 30
0.0
 10
2.84428
 20
11.1357
 30
0.0
 10
2.84887
 20
11.14186
 30
0.0
 10
2.85325
 20
11.1482
 30
0.0
 10
2.85325
 20
11.1482
 30
0.0
 10
2.85389
 20
11.149
 30
0.0
 10
2.85381
 20
11.14972
 30
0.0
 10
2.85301
 20
11.15035
 30
0.0
 10
2.85301
 20
11.15035
 30
0.0
 10
2.84251
 20
11.15936
 30
0.0
 10
2.83207
 20
11.16833
 30
0.0
 10
2.82166
 20
11.17726
 30
0.0
 10
2.82166
 20
11.17726
 30
0.0
 10
2.81127
 20
11.18618
 30
0.0
 10
2.80067
 20
11.19496
 30
0.0
 10
2.78985
 20
11.20356
 30
0.0
 10
2.78985
 20
11.20356
 30
0.0
 10
2.78985
 20
11.20356
 30
0.0
 10
2.78024
 20
11.21122
 30
0.0
 10
2.78024
 20
11.21122
 30
0.0
 10
2.78024
 20
11.21122
 30
0.0
 10
2.77943
 20
11.21186
 30
0.0
 10
2.77872
 20
11.21178
 30
0.0
 10
2.77808
 20
11.21098
 30
0.0
 10
2.77808
 20
11.21098
 30
0.0
 10
2.77297
 20
11.20456
 30
0.0
 10
2.76787
 20
11.19816
 30
0.0
 10
2.76277
 20
11.19175
 30
0.0
 10
2.76277
 20
11.19175
 30
0.0
 10
2.75767
 20
11.18534
 30
0.0
 10
2.75267
 20
11.17885
 30
0.0
 10
2.74778
 20
11.17228
 30
0.0
 10
2.74778
 20
11.17228
 30
0.0
 10
2.74714
 20
11.17148
 30
0.0
 10
2.74722
 20
11.17076
 30
0.0
 10
2.74801
 20
11.17012
 30
0.0
 10
2.74801
 20
11.17012
 30
0.0
 10
2.76063
 20
11.16008
 30
0.0
 10
2.77309
 20
11.15024
 30
0.0
 10
2.78538
 20
11.14062
 30
0.0
 10
2.78538
 20
11.14062
 30
0.0
 10
2.79768
 20
11.131
 30
0.0
 10
2.8103
 20
11.12136
 30
0.0
 10
2.82324
 20
11.11172
 30
0.0
 10
2.82324
 20
11.11172
 30
0.0
 10
2.82404
 20
11.11108
 30
0.0
 10
2.82475
 20
11.11116
 30
0.0
 10
2.82539
 20
11.11197
 30
0.0
  0
SPLINE
  5
6A
330
1F
100
AcDbEntity
  8
Warstwa 1
 62
   250
100
AcDbSpline
210
0.0
220
0.0
230
1.0
 70
    11
 71
     3
 72
    72
 73
    68
 74
     0
 42
0.0000000001
 43
0.0000000001
 40
0.0
 40
0.0
 40
0.0
 40
0.0
 40
0.0588235294117647
 40
0.0588235294117647
 40
0.0588235294117647
 40
0.0588235294117647
 40
0.1176470588235294
 40
0.1176470588235294
 40
0.1176470588235294
 40
0.1176470588235294
 40
0.1764705882352941
 40
0.1764705882352941
 40
0.1764705882352941
 40
0.1764705882352941
 40
0.2352941176470588
 40
0.2352941176470588
 40
0.2352941176470588
 40
0.2352941176470588
 40
0.2941176470588235
 40
0.2941176470588235
 40
0.2941176470588235
 40
0.2941176470588235
 40
0.3529411764705883
 40
0.3529411764705883
 40
0.3529411764705883
 40
0.3529411764705883
 40
0.411764705882353
 40
0.411764705882353
 40
0.411764705882353
 40
0.411764705882353
 40
0.4705882352941177
 40
0.4705882352941177
 40
0.4705882352941177
 40
0.4705882352941177
 40
0.5294117647058824
 40
0.5294117647058824
 40
0.5294117647058824
 40
0.5294117647058824
 40
0.5882352941176471
 40
0.5882352941176471
 40
0.5882352941176471
 40
0.5882352941176471
 40
0.6470588235294118
 40
0.6470588235294118
 40
0.6470588235294118
 40
0.6470588235294118
 40
0.7058823529411765
 40
0.7058823529411765
 40
0.7058823529411765
 40
0.7058823529411765
 40
0.7647058823529412
 40
0.7647058823529412
 40
0.7647058823529412
 40
0.7647058823529412
 40
0.823529411764706
 40
0.823529411764706
 40
0.823529411764706
 40
0.823529411764706
 40
0.8823529411764707
 40
0.8823529411764707
 40
0.8823529411764707
 40
0.8823529411764707
 40
0.9411764705882354
 40
0.9411764705882354
 40
0.9411764705882354
 40
0.9411764705882354
 40
1.0
 40
1.0
 40
1.0
 40
1.0
 10
2.795
 20
11.06206
 30
0.0
 10
2.79596
 20
11.06326
 30
0.0
 10
2.79577
 20
11.06406
 30
0.0
 10
2.79445
 20
11.06446
 30
0.0
 10
2.79445
 20
11.06446
 30
0.0
 10
2.78036
 20
11.07142
 30
0.0
 10
2.76695
 20
11.07923
 30
0.0
 10
2.75422
 20
11.0879
 30
0.0
 10
2.75422
 20
11.0879
 30
0.0
 10
2.74148
 20
11.09656
 30
0.0
 10
2.7291
 20
11.10568
 30
0.0
 10
2.71709
 20
11.11524
 30
0.0
 10
2.71709
 20
11.11524
 30
0.0
 10
2.71709
 20
11.11524
 30
0.0
 10
2.70958
 20
11.12122
 30
0.0
 10
2.70958
 20
11.12122
 30
0.0
 10
2.70958
 20
11.12122
 30
0.0
 10
2.70878
 20
11.12186
 30
0.0
 10
2.70806
 20
11.12178
 30
0.0
 10
2.70742
 20
11.12097
 30
0.0
 10
2.70742
 20
11.12097
 30
0.0
 10
2.70539
 20
11.11801
 30
0.0
 10
2.70318
 20
11.11503
 30
0.0
 10
2.70078
 20
11.11203
 30
0.0
 10
2.70078
 20
11.11203
 30
0.0
 10
2.69839
 20
11.10902
 30
0.0
 10
2.696
 20
11.10602
 30
0.0
 10
2.69361
 20
11.10301
 30
0.0
 10
2.69361
 20
11.10301
 30
0.0
 10
2.69361
 20
11.10301
 30
0.0
 10
2.67926
 20
11.08499
 30
0.0
 10
2.67926
 20
11.08499
 30
0.0
 10
2.67926
 20
11.08499
 30
0.0
 10
2.67863
 20
11.08419
 30
0.0
 10
2.67871
 20
11.08346
 30
0.0
 10
2.67951
 20
11.08282
 30
0.0
 10
2.67951
 20
11.08282
 30
0.0
 10
2.67951
 20
11.08282
 30
0.0
 10
2.68522
 20
11.07828
 30
0.0
 10
2.68522
 20
11.07828
 30
0.0
 10
2.68522
 20
11.07828
 30
0.0
 10
2.69683
 20
11.06903
 30
0.0
 10
2.70888
 20
11.06042
 30
0.0
 10
2.72135
 20
11.05247
 30
0.0
 10
2.72135
 20
11.05247
 30
0.0
 10
2.73382
 20
11.0445
 30
0.0
 10
2.74716
 20
11.03814
 30
0.0
 10
2.76136
 20
11.03337
 30
0.0
 10
2.76136
 20
11.03337
 30
0.0
 10
2.76197
 20
11.03289
 30
0.0
 10
2.7625
 20
11.03295
 30
0.0
 10
2.76298
 20
11.03356
 30
0.0
 10
2.76298
 20
11.03356
 30
0.0
 10
2.76398
 20
11.0344
 30
0.0
 10
2.76485
 20
11.03518
 30
0.0
 10
2.76559
 20
11.0359
 30
0.0
 10
2.76559
 20
11.0359
 30
0.0
 10
2.76633
 20
11.03662
 30
0.0
 10
2.76729
 20
11.03732
 30
0.0
 10
2.76849
 20
11.038
 30
0.0
 10
2.76849
 20
11.038
 30
0.0
 10
2.7728
 20
11.04178
 30
0.0
 10
2.77724
 20
11.04561
 30
0.0
 10
2.7818
 20
11.04949
 30
0.0
 10
2.7818
 20
11.04949
 30
0.0
 10
2.78637
 20
11.05339
 30
0.0
 10
2.79077
 20
11.05757
 30
0.0
 10
2.795
 20
11.06206
 30
0.0
  0
SPLINE
  5
6B
330
1F
100
AcDbEntity
  8
Warstwa 1
 62
   250
100
AcDbSpline
210
0.0
220
0.0
230
1.0
 70
    11
 71
     3
 72
    60
 73
    56
 74
     0
 42
0.0000000001
 43
0.0000000001
 40
0.0
 40
0.0
 40
0.0
 40
0.0
 40
0.0714285714285714
 40
0.0714285714285714
 40
0.0714285714285714
 40
0.0714285714285714
 40
0.1428571428571428
 40
0.1428571428571428
 40
0.1428571428571428
 40
0.1428571428571428
 40
0.2142857142857143
 40
0.2142857142857143
 40
0.2142857142857143
 40
0.2142857142857143
 40
0.2857142857142857
 40
0.2857142857142857
 40
0.2857142857142857
 40
0.2857142857142857
 40
0.3571428571428571
 40
0.3571428571428571
 40
0.3571428571428571
 40
0.3571428571428571
 40
0.4285714285714285
 40
0.4285714285714285
 40
0.4285714285714285
 40
0.4285714285714285
 40
0.4999999999999999
 40
0.4999999999999999
 40
0.4999999999999999
 40
0.4999999999999999
 40
0.5714285714285713
 40
0.5714285714285713
 40
0.5714285714285713
 40
0.5714285714285713
 40
0.6428571428571427
 40
0.6428571428571427
 40
0.6428571428571427
 40
0.6428571428571427
 40
0.7142857142857141
 40
0.7142857142857141
 40
0.7142857142857141
 40
0.7142857142857141
 40
0.7857142857142855
 40
0.7857142857142855
 40
0.7857142857142855
 40
0.7857142857142855
 40
0.8571428571428569
 40
0.8571428571428569
 40
0.8571428571428569
 40
0.8571428571428569
 40
0.9285714285714283
 40
0.9285714285714283
 40
0.9285714285714283
 40
0.9285714285714283
 40
1.0
 40
1.0
 40
1.0
 40
1.0
 10
2.66237
 20
11.10137
 30
0.0
 10
2.68675
 20
11.13693
 30
0.0
 10
2.71265
 20
11.17193
 30
0.0
 10
2.74007
 20
11.20638
 30
0.0
 10
2.74007
 20
11.20638
 30
0.0
 10
2.76526
 20
11.23803
 30
0.0
 10
2.79189
 20
11.26902
 30
0.0
 10
2.81996
 20
11.29935
 30
0.0
 10
2.81996
 20
11.29935
 30
0.0
 10
2.82059
 20
11.30015
 30
0.0
 10
2.82052
 20
11.30087
 30
0.0
 10
2.81972
 20
11.30151
 30
0.0
 10
2.81972
 20
11.30151
 30
0.0
 10
2.81243
 20
11.30633
 30
0.0
 10
2.80493
 20
11.31057
 30
0.0
 10
2.79722
 20
11.31425
 30
0.0
 10
2.79722
 20
11.31425
 30
0.0
 10
2.78952
 20
11.31793
 30
0.0
 10
2.78167
 20
11.32132
 30
0.0
 10
2.77366
 20
11.32441
 30
0.0
 10
2.77366
 20
11.32441
 30
0.0
 10
2.77366
 20
11.32441
 30
0.0
 10
2.77204
 20
11.32424
 30
0.0
 10
2.77204
 20
11.32424
 30
0.0
 10
2.77204
 20
11.32424
 30
0.0
 10
2.75688
 20
11.31176
 30
0.0
 10
2.74246
 20
11.29838
 30
0.0
 10
2.72879
 20
11.28407
 30
0.0
 10
2.72879
 20
11.28407
 30
0.0
 10
2.71511
 20
11.26977
 30
0.0
 10
2.70206
 20
11.2548
 30
0.0
 10
2.68962
 20
11.23918
 30
0.0
 10
2.68962
 20
11.23918
 30
0.0
 10
2.67767
 20
11.22416
 30
0.0
 10
2.66644
 20
11.20872
 30
0.0
 10
2.65594
 20
11.19286
 30
0.0
 10
2.65594
 20
11.19286
 30
0.0
 10
2.64544
 20
11.17701
 30
0.0
 10
2.63589
 20
11.16058
 30
0.0
 10
2.62725
 20
11.14356
 30
0.0
 10
2.62725
 20
11.14356
 30
0.0
 10
2.62677
 20
11.14296
 30
0.0
 10
2.62683
 20
11.14242
 30
0.0
 10
2.62744
 20
11.14195
 30
0.0
 10
2.62744
 20
11.14195
 30
0.0
 10
2.63205
 20
11.135
 30
0.0
 10
2.63707
 20
11.12805
 30
0.0
 10
2.64251
 20
11.12112
 30
0.0
 10
2.64251
 20
11.12112
 30
0.0
 10
2.64794
 20
11.11417
 30
0.0
 10
2.65385
 20
11.1075
 30
0.0
 10
2.66022
 20
11.10113
 30
0.0
 10
2.66022
 20
11.10113
 30
0.0
 10
2.66102
 20
11.10049
 30
0.0
 10
2.66173
 20
11.10057
 30
0.0
 10
2.66237
 20
11.10137
 30
0.0
  0
SPLINE
  5
6C
330
1F
100
AcDbEntity
  8
Warstwa 1
 62
   250
100
AcDbSpline
210
0.0
220
0.0
230
1.0
 70
    11
 71
     3
 72
   116
 73
   112
 74
     0
 42
0.0000000001
 43
0.0000000001
 40
0.0
 40
0.0
 40
0.0
 40
0.0
 40
0.0357142857142857
 40
0.0357142857142857
 40
0.0357142857142857
 40
0.0357142857142857
 40
0.0714285714285714
 40
0.0714285714285714
 40
0.0714285714285714
 40
0.0714285714285714
 40
0.1071428571428571
 40
0.1071428571428571
 40
0.1071428571428571
 40
0.1071428571428571
 40
0.1428571428571428
 40
0.1428571428571428
 40
0.1428571428571428
 40
0.1428571428571428
 40
0.1785714285714285
 40
0.1785714285714285
 40
0.1785714285714285
 40
0.1785714285714285
 40
0.2142857142857142
 40
0.2142857142857142
 40
0.2142857142857142
 40
0.2142857142857142
 40
0.2499999999999999
 40
0.2499999999999999
 40
0.2499999999999999
 40
0.2499999999999999
 40
0.2857142857142856
 40
0.2857142857142856
 40
0.2857142857142856
 40
0.2857142857142856
 40
0.3214285714285713
 40
0.3214285714285713
 40
0.3214285714285713
 40
0.3214285714285713
 40
0.357142857142857
 40
0.357142857142857
 40
0.357142857142857
 40
0.357142857142857
 40
0.3928571428571427
 40
0.3928571428571427
 40
0.3928571428571427
 40
0.3928571428571427
 40
0.4285714285714284
 40
0.4285714285714284
 40
0.4285714285714284
 40
0.4285714285714284
 40
0.4642857142857141
 40
0.4642857142857141
 40
0.4642857142857141
 40
0.4642857142857141
 40
0.4999999999999998
 40
0.4999999999999998
 40
0.4999999999999998
 40
0.4999999999999998
 40
0.5357142857142856
 40
0.5357142857142856
 40
0.5357142857142856
 40
0.5357142857142856
 40
0.5714285714285713
 40
0.5714285714285713
 40
0.5714285714285713
 40
0.5714285714285713
 40
0.607142857142857
 40
0.607142857142857
 40
0.607142857142857
 40
0.607142857142857
 40
0.6428571428571427
 40
0.6428571428571427
 40
0.6428571428571427
 40
0.6428571428571427
 40
0.6785714285714284
 40
0.6785714285714284
 40
0.6785714285714284
 40
0.6785714285714284
 40
0.7142857142857141
 40
0.7142857142857141
 40
0.7142857142857141
 40
0.7142857142857141
 40
0.7499999999999998
 40
0.7499999999999998
 40
0.7499999999999998
 40
0.7499999999999998
 40
0.7857142857142855
 40
0.7857142857142855
 40
0.7857142857142855
 40
0.7857142857142855
 40
0.8214285714285712
 40
0.8214285714285712
 40
0.8214285714285712
 40
0.8214285714285712
 40
0.8571428571428569
 40
0.8571428571428569
 40
0.8571428571428569
 40
0.8571428571428569
 40
0.8928571428571426
 40
0.8928571428571426
 40
0.8928571428571426
 40
0.8928571428571426
 40
0.9285714285714283
 40
0.9285714285714283
 40
0.9285714285714283
 40
0.9285714285714283
 40
0.964285714285714
 40
0.964285714285714
 40
0.964285714285714
 40
0.964285714285714
 40
1.0
 40
1.0
 40
1.0
 40
1.0
 10
3.00761
 20
10.8403
 30
0.0
 10
3.00984
 20
10.85915
 30
0.0
 10
3.01143
 20
10.87799
 30
0.0
 10
3.01238
 20
10.89687
 30
0.0
 10
3.01238
 20
10.89687
 30
0.0
 10
3.01334
 20
10.91574
 30
0.0
 10
3.01401
 20
10.93467
 30
0.0
 10
3.01441
 20
10.95367
 30
0.0
 10
3.01441
 20
10.95367
 30
0.0
 10
3.01467
 20
10.96098
 30
0.0
 10
3.01485
 20
10.96819
 30
0.0
 10
3.01495
 20
10.97531
 30
0.0
 10
3.01495
 20
10.97531
 30
0.0
 10
3.01506
 20
10.98243
 30
0.0
 10
3.01524
 20
10.98965
 30
0.0
 10
3.0155
 20
10.99696
 30
0.0
 10
3.0155
 20
10.99696
 30
0.0
 10
3.02121
 20
10.99797
 30
0.0
 10
3.02687
 20
10.99912
 30
0.0
 10
3.03246
 20
11.00039
 30
0.0
 10
3.03246
 20
11.00039
 30
0.0
 10
3.03806
 20
11.00167
 30
0.0
 10
3.04389
 20
11.00283
 30
0.0
 10
3.04997
 20
11.00388
 30
0.0
 10
3.04997
 20
11.00388
 30
0.0
 10
3.06654
 20
11.00704
 30
0.0
 10
3.08304
 20
11.01018
 30
0.0
 10
3.09945
 20
11.01333
 30
0.0
 10
3.09945
 20
11.01333
 30
0.0
 10
3.11585
 20
11.01647
 30
0.0
 10
3.1322
 20
11.02005
 30
0.0
 10
3.1485
 20
11.0241
 30
0.0
 10
3.1485
 20
11.0241
 30
0.0
 10
3.14994
 20
11.02425
 30
0.0
 10
3.15021
 20
11.02502
 30
0.0
 10
3.14933
 20
11.02637
 30
0.0
 10
3.14933
 20
11.02637
 30
0.0
 10
3.14231
 20
11.03523
 30
0.0
 10
3.13506
 20
11.04379
 30
0.0
 10
3.12756
 20
11.05205
 30
0.0
 10
3.12756
 20
11.05205
 30
0.0
 10
3.12007
 20
11.0603
 30
0.0
 10
3.11213
 20
11.06842
 30
0.0
 10
3.10376
 20
11.07639
 30
0.0
 10
3.10376
 20
11.07639
 30
0.0
 10
3.10355
 20
11.07655
 30
0.0
 10
3.1031
 20
11.07659
 30
0.0
 10
3.10238
 20
11.07651
 30
0.0
 10
3.10238
 20
11.07651
 30
0.0
 10
3.0922
 20
11.07317
 30
0.0
 10
3.08196
 20
11.07018
 30
0.0
 10
3.0717
 20
11.06756
 30
0.0
 10
3.0717
 20
11.06756
 30
0.0
 10
3.06143
 20
11.06494
 30
0.0
 10
3.05116
 20
11.06231
 30
0.0
 10
3.04089
 20
11.05969
 30
0.0
 10
3.04089
 20
11.05969
 30
0.0
 10
3.03414
 20
11.0582
 30
0.0
 10
3.02695
 20
11.05697
 30
0.0
 10
3.01931
 20
11.05601
 30
0.0
 10
3.01931
 20
11.05601
 30
0.0
 10
3.01168
 20
11.05505
 30
0.0
 10
3.00443
 20
11.05355
 30
0.0
 10
2.99756
 20
11.05149
 30
0.0
 10
2.99756
 20
11.05149
 30
0.0
 10
2.99756
 20
11.05149
 30
0.0
 10
2.99678
 20
11.05113
 30
0.0
 10
2.99678
 20
11.05113
 30
0.0
 10
2.99678
 20
11.05113
 30
0.0
 10
2.99164
 20
11.04507
 30
0.0
 10
2.98629
 20
11.03919
 30
0.0
 10
2.98075
 20
11.03345
 30
0.0
 10
2.98075
 20
11.03345
 30
0.0
 10
2.97521
 20
11.02772
 30
0.0
 10
2.97072
 20
11.02148
 30
0.0
 10
2.96731
 20
11.01472
 30
0.0
 10
2.96731
 20
11.01472
 30
0.0
 10
2.96731
 20
11.01472
 30
0.0
 10
2.95811
 20
10.997
 30
0.0
 10
2.95811
 20
10.997
 30
0.0
 10
2.95811
 20
10.997
 30
0.0
 10
2.95741
 20
10.99036
 30
0.0
 10
2.95696
 20
10.98352
 30
0.0
 10
2.95676
 20
10.97649
 30
0.0
 10
2.95676
 20
10.97649
 30
0.0
 10
2.95655
 20
10.96946
 30
0.0
 10
2.95637
 20
10.96255
 30
0.0
 10
2.95624
 20
10.9558
 30
0.0
 10
2.95624
 20
10.9558
 30
0.0
 10
2.95547
 20
10.94169
 30
0.0
 10
2.95462
 20
10.92756
 30
0.0
 10
2.95367
 20
10.91343
 30
0.0
 10
2.95367
 20
10.91343
 30
0.0
 10
2.95272
 20
10.89929
 30
0.0
 10
2.95123
 20
10.88518
 30
0.0
 10
2.94919
 20
10.87111
 30
0.0
 10
2.94919
 20
10.87111
 30
0.0
 10
2.94927
 20
10.87039
 30
0.0
 10
2.94941
 20
10.86995
 30
0.0
 10
2.94961
 20
10.86979
 30
0.0
 10
2.94961
 20
10.86979
 30
0.0
 10
2.95866
 20
10.86389
 30
0.0
 10
2.96781
 20
10.85834
 30
0.0
 10
2.97706
 20
10.8531
 30
0.0
 10
2.97706
 20
10.8531
 30
0.0
 10
2.9863
 20
10.84787
 30
0.0
 10
2.99581
 20
10.84316
 30
0.0
 10
3.00557
 20
10.83898
 30
0.0
 10
3.00557
 20
10.83898
 30
0.0
 10
3.00653
 20
10.83855
 30
0.0
 10
3.00721
 20
10.83899
 30
0.0
 10
3.00761
 20
10.8403
 30
0.0
  0
SPLINE
  5
6D
330
1F
100
AcDbEntity
  8
Warstwa 1
 62
   250
100
AcDbSpline
210
0.0
220
0.0
230
1.0
 70
    11
 71
     3
 72
    64
 73
    60
 74
     0
 42
0.0000000001
 43
0.0000000001
 40
0.0
 40
0.0
 40
0.0
 40
0.0
 40
0.0666666666666667
 40
0.0666666666666667
 40
0.0666666666666667
 40
0.0666666666666667
 40
0.1333333333333333
 40
0.1333333333333333
 40
0.1333333333333333
 40
0.1333333333333333
 40
0.2
 40
0.2
 40
0.2
 40
0.2
 40
0.2666666666666667
 40
0.2666666666666667
 40
0.2666666666666667
 40
0.2666666666666667
 40
0.3333333333333333
 40
0.3333333333333333
 40
0.3333333333333333
 40
0.3333333333333333
 40
0.4
 40
0.4
 40
0.4
 40
0.4
 40
0.4666666666666666
 40
0.4666666666666666
 40
0.4666666666666666
 40
0.4666666666666666
 40
0.5333333333333333
 40
0.5333333333333333
 40
0.5333333333333333
 40
0.5333333333333333
 40
0.6
 40
0.6
 40
0.6
 40
0.6
 40
0.6666666666666666
 40
0.6666666666666666
 40
0.6666666666666666
 40
0.6666666666666666
 40
0.7333333333333333
 40
0.7333333333333333
 40
0.7333333333333333
 40
0.7333333333333333
 40
0.7999999999999999
 40
0.7999999999999999
 40
0.7999999999999999
 40
0.7999999999999999
 40
0.8666666666666666
 40
0.8666666666666666
 40
0.8666666666666666
 40
0.8666666666666666
 40
0.9333333333333332
 40
0.9333333333333332
 40
0.9333333333333332
 40
0.9333333333333332
 40
1.0
 40
1.0
 40
1.0
 40
1.0
 10
2.87936
 20
10.93013
 30
0.0
 10
2.89047
 20
10.94778
 30
0.0
 10
2.90212
 20
10.96509
 30
0.0
 10
2.91431
 20
10.98205
 30
0.0
 10
2.91431
 20
10.98205
 30
0.0
 10
2.92651
 20
10.99901
 30
0.0
 10
2.93913
 20
11.01571
 30
0.0
 10
2.95221
 20
11.03213
 30
0.0
 10
2.95221
 20
11.03213
 30
0.0
 10
2.96528
 20
11.04855
 30
0.0
 10
2.97868
 20
11.06455
 30
0.0
 10
2.99239
 20
11.08014
 30
0.0
 10
2.99239
 20
11.08014
 30
0.0
 10
3.0061
 20
11.09572
 30
0.0
 10
3.0204
 20
11.111
 30
0.0
 10
3.03527
 20
11.12599
 30
0.0
 10
3.03527
 20
11.12599
 30
0.0
 10
3.03591
 20
11.1268
 30
0.0
 10
3.03583
 20
11.12752
 30
0.0
 10
3.03503
 20
11.12815
 30
0.0
 10
3.03503
 20
11.12815
 30
0.0
 10
3.02778
 20
11.13262
 30
0.0
 10
3.02039
 20
11.13678
 30
0.0
 10
3.01284
 20
11.14066
 30
0.0
 10
3.01284
 20
11.14066
 30
0.0
 10
3.00529
 20
11.14454
 30
0.0
 10
2.99768
 20
11.14823
 30
0.0
 10
2.99
 20
11.15173
 30
0.0
 10
2.99
 20
11.15173
 30
0.0
 10
2.99
 20
11.15173
 30
0.0
 10
2.98838
 20
11.15155
 30
0.0
 10
2.98838
 20
11.15155
 30
0.0
 10
2.98838
 20
11.15155
 30
0.0
 10
2.97282
 20
11.1394
 30
0.0
 10
2.95794
 20
11.12646
 30
0.0
 10
2.94374
 20
11.11273
 30
0.0
 10
2.94374
 20
11.11273
 30
0.0
 10
2.92954
 20
11.099
 30
0.0
 10
2.91622
 20
11.08433
 30
0.0
 10
2.90379
 20
11.0687
 30
0.0
 10
2.90379
 20
11.0687
 30
0.0
 10
2.87972
 20
11.03846
 30
0.0
 10
2.85973
 20
11.00596
 30
0.0
 10
2.84382
 20
10.97118
 30
0.0
 10
2.84382
 20
10.97118
 30
0.0
 10
2.84334
 20
10.97057
 30
0.0
 10
2.8434
 20
10.97004
 30
0.0
 10
2.84401
 20
10.96956
 30
0.0
 10
2.84401
 20
10.96956
 30
0.0
 10
2.84934
 20
10.96269
 30
0.0
 10
2.8547
 20
10.95597
 30
0.0
 10
2.8601
 20
10.94939
 30
0.0
 10
2.8601
 20
10.94939
 30
0.0
 10
2.86549
 20
10.94281
 30
0.0
 10
2.87109
 20
10.93638
 30
0.0
 10
2.8769
 20
10.93012
 30
0.0
 10
2.8769
 20
10.93012
 30
0.0
 10
2.8779
 20
10.92932
 30
0.0
 10
2.87872
 20
10.92932
 30
0.0
 10
2.87936
 20
10.93013
 30
0.0
  0
SPLINE
  5
6E
330
1F
100
AcDbEntity
  8
Warstwa 1
 62
   250
100
AcDbSpline
210
0.0
220
0.0
230
1.0
 70
    11
 71
     3
 72
   212
 73
   208
 74
     0
 42
0.0000000001
 43
0.0000000001
 40
0.0
 40
0.0
 40
0.0
 40
0.0
 40
0.0192307692307692
 40
0.0192307692307692
 40
0.0192307692307692
 40
0.0192307692307692
 40
0.0384615384615385
 40
0.0384615384615385
 40
0.0384615384615385
 40
0.0384615384615385
 40
0.0576923076923077
 40
0.0576923076923077
 40
0.0576923076923077
 40
0.0576923076923077
 40
0.0769230769230769
 40
0.0769230769230769
 40
0.0769230769230769
 40
0.0769230769230769
 40
0.0961538461538462
 40
0.0961538461538462
 40
0.0961538461538462
 40
0.0961538461538462
 40
0.1153846153846154
 40
0.1153846153846154
 40
0.1153846153846154
 40
0.1153846153846154
 40
0.1346153846153846
 40
0.1346153846153846
 40
0.1346153846153846
 40
0.1346153846153846
 40
0.1538461538461539
 40
0.1538461538461539
 40
0.1538461538461539
 40
0.1538461538461539
 40
0.1730769230769231
 40
0.1730769230769231
 40
0.1730769230769231
 40
0.1730769230769231
 40
0.1923076923076923
 40
0.1923076923076923
 40
0.1923076923076923
 40
0.1923076923076923
 40
0.2115384615384615
 40
0.2115384615384615
 40
0.2115384615384615
 40
0.2115384615384615
 40
0.2307692307692307
 40
0.2307692307692307
 40
0.2307692307692307
 40
0.2307692307692307
 40
0.2499999999999999
 40
0.2499999999999999
 40
0.2499999999999999
 40
0.2499999999999999
 40
0.2692307692307692
 40
0.2692307692307692
 40
0.2692307692307692
 40
0.2692307692307692
 40
0.2884615384615384
 40
0.2884615384615384
 40
0.2884615384615384
 40
0.2884615384615384
 40
0.3076923076923076
 40
0.3076923076923076
 40
0.3076923076923076
 40
0.3076923076923076
 40
0.3269230769230768
 40
0.3269230769230768
 40
0.3269230769230768
 40
0.3269230769230768
 40
0.346153846153846
 40
0.346153846153846
 40
0.346153846153846
 40
0.346153846153846
 40
0.3653846153846153
 40
0.3653846153846153
 40
0.3653846153846153
 40
0.3653846153846153
 40
0.3846153846153845
 40
0.3846153846153845
 40
0.3846153846153845
 40
0.3846153846153845
 40
0.4038461538461537
 40
0.4038461538461537
 40
0.4038461538461537
 40
0.4038461538461537
 40
0.4230769230769229
 40
0.4230769230769229
 40
0.4230769230769229
 40
0.4230769230769229
 40
0.4423076923076921
 40
0.4423076923076921
 40
0.4423076923076921
 40
0.4423076923076921
 40
0.4615384615384613
 40
0.4615384615384613
 40
0.4615384615384613
 40
0.4615384615384613
 40
0.4807692307692306
 40
0.4807692307692306
 40
0.4807692307692306
 40
0.4807692307692306
 40
0.4999999999999998
 40
0.4999999999999998
 40
0.4999999999999998
 40
0.4999999999999998
 40
0.519230769230769
 40
0.519230769230769
 40
0.519230769230769
 40
0.519230769230769
 40
0.5384615384615383
 40
0.5384615384615383
 40
0.5384615384615383
 40
0.5384615384615383
 40
0.5576923076923076
 40
0.5576923076923076
 40
0.5576923076923076
 40
0.5576923076923076
 40
0.5769230769230769
 40
0.5769230769230769
 40
0.5769230769230769
 40
0.5769230769230769
 40
0.5961538461538461
 40
0.5961538461538461
 40
0.5961538461538461
 40
0.5961538461538461
 40
0.6153846153846154
 40
0.6153846153846154
 40
0.6153846153846154
 40
0.6153846153846154
 40
0.6346153846153847
 40
0.6346153846153847
 40
0.6346153846153847
 40
0.6346153846153847
 40
0.653846153846154
 40
0.653846153846154
 40
0.653846153846154
 40
0.653846153846154
 40
0.6730769230769232
 40
0.6730769230769232
 40
0.6730769230769232
 40
0.6730769230769232
 40
0.6923076923076925
 40
0.6923076923076925
 40
0.6923076923076925
 40
0.6923076923076925
 40
0.7115384615384618
 40
0.7115384615384618
 40
0.7115384615384618
 40
0.7115384615384618
 40
0.7307692307692311
 40
0.7307692307692311
 40
0.7307692307692311
 40
0.7307692307692311
 40
0.7500000000000003
 40
0.7500000000000003
 40
0.7500000000000003
 40
0.7500000000000003
 40
0.7692307692307696
 40
0.7692307692307696
 40
0.7692307692307696
 40
0.7692307692307696
 40
0.7884615384615389
 40
0.7884615384615389
 40
0.7884615384615389
 40
0.7884615384615389
 40
0.8076923076923082
 40
0.8076923076923082
 40
0.8076923076923082
 40
0.8076923076923082
 40
0.8269230769230774
 40
0.8269230769230774
 40
0.8269230769230774
 40
0.8269230769230774
 40
0.8461538461538467
 40
0.8461538461538467
 40
0.8461538461538467
 40
0.8461538461538467
 40
0.865384615384616
 40
0.865384615384616
 40
0.865384615384616
 40
0.865384615384616
 40
0.8846153846153852
 40
0.8846153846153852
 40
0.8846153846153852
 40
0.8846153846153852
 40
0.9038461538461545
 40
0.9038461538461545
 40
0.9038461538461545
 40
0.9038461538461545
 40
0.9230769230769238
 40
0.9230769230769238
 40
0.9230769230769238
 40
0.9230769230769238
 40
0.9423076923076931
 40
0.9423076923076931
 40
0.9423076923076931
 40
0.9423076923076931
 40
0.9615384615384623
 40
0.9615384615384623
 40
0.9615384615384623
 40
0.9615384615384623
 40
0.9807692307692316
 40
0.9807692307692316
 40
0.9807692307692316
 40
0.9807692307692316
 40
1.0
 40
1.0
 40
1.0
 40
1.0
 10
-2.02764
 20
3.07345
 30
0.0
 10
-2.02971
 20
3.08983
 30
0.0
 10
-2.03277
 20
3.10587
 30
0.0
 10
-2.03681
 20
3.12156
 30
0.0
 10
-2.03681
 20
3.12156
 30
0.0
 10
-2.04085
 20
3.13725
 30
0.0
 10
-2.04546
 20
3.15283
 30
0.0
 10
-2.05065
 20
3.16829
 30
0.0
 10
-2.05065
 20
3.16829
 30
0.0
 10
-2.05584
 20
3.18375
 30
0.0
 10
-2.06144
 20
3.19897
 30
0.0
 10
-2.06744
 20
3.21397
 30
0.0
 10
-2.06744
 20
3.21397
 30
0.0
 10
-2.07344
 20
3.22897
 30
0.0
 10
-2.07944
 20
3.24397
 30
0.0
 10
-2.08544
 20
3.25897
 30
0.0
 10
-2.08544
 20
3.25897
 30
0.0
 10
-2.08544
 20
3.25897
 30
0.0
 10
-2.09963
 20
3.29392
 30
0.0
 10
-2.09963
 20
3.29392
 30
0.0
 10
-2.09963
 20
3.29392
 30
0.0
 10
-2.09963
 20
3.29439
 30
0.0
 10
-2.10009
 20
3.29462
 30
0.0
 10
-2.10101
 20
3.29462
 30
0.0
 10
-2.10101
 20
3.29462
 30
0.0
 10
-2.10632
 20
3.29508
 30
0.0
 10
-2.11163
 20
3.29542
 30
0.0
 10
-2.11693
 20
3.29565
 30
0.0
 10
-2.11693
 20
3.29565
 30
0.0
 10
-2.12224
 20
3.29588
 30
0.0
 10
-2.12755
 20
3.296
 30
0.0
 10
-2.13285
 20
3.296
 30
0.0
 10
-2.13285
 20
3.296
 30
0.0
 10
-2.14139
 20
3.296
 30
0.0
 10
-2.14958
 20
3.29565
 30
0.0
 10
-2.15743
 20
3.29496
 30
0.0
 10
-2.15743
 20
3.29496
 30
0.0
 10
-2.15743
 20
3.29496
 30
0.0
 10
-2.15881
 20
3.29427
 30
0.0
 10
-2.15881
 20
3.29427
 30
0.0
 10
-2.15881
 20
3.29427
 30
0.0
 10
-2.15881
 20
3.29427
 30
0.0
 10
-2.17231
 20
3.26139
 30
0.0
 10
-2.17231
 20
3.26139
 30
0.0
 10
-2.17231
 20
3.26139
 30
0.0
 10
-2.17854
 20
3.24639
 30
0.0
 10
-2.18465
 20
3.23128
 30
0.0
 10
-2.19065
 20
3.21605
 30
0.0
 10
-2.19065
 20
3.21605
 30
0.0
 10
-2.19665
 20
3.20082
 30
0.0
 10
-2.20225
 20
3.18553
 30
0.0
 10
-2.20744
 20
3.17019
 30
0.0
 10
-2.20744
 20
3.17019
 30
0.0
 10
-2.21263
 20
3.15485
 30
0.0
 10
-2.21725
 20
3.13927
 30
0.0
 10
-2.22128
 20
3.12346
 30
0.0
 10
-2.22128
 20
3.12346
 30
0.0
 10
-2.22532
 20
3.10766
 30
0.0
 10
-2.22838
 20
3.09156
 30
0.0
 10
-2.23046
 20
3.07518
 30
0.0
 10
-2.23046
 20
3.07518
 30
0.0
 10
-2.23046
 20
3.07426
 30
0.0
 10
-2.23011
 20
3.07368
 30
0.0
 10
-2.22942
 20
3.07345
 30
0.0
 10
-2.22942
 20
3.07345
 30
0.0
 10
-2.21304
 20
3.06907
 30
0.0
 10
-2.19561
 20
3.06584
 30
0.0
 10
-2.17716
 20
3.06376
 30
0.0
 10
-2.17716
 20
3.06376
 30
0.0
 10
-2.17623
 20
3.06376
 30
0.0
 10
-2.17577
 20
3.06411
 30
0.0
 10
-2.17577
 20
3.0648
 30
0.0
 10
-2.17577
 20
3.0648
 30
0.0
 10
-2.17185
 20
3.08533
 30
0.0
 10
-2.167
 20
3.1057
 30
0.0
 10
-2.16123
 20
3.12589
 30
0.0
 10
-2.16123
 20
3.12589
 30
0.0
 10
-2.15547
 20
3.14608
 30
0.0
 10
-2.14958
 20
3.16632
 30
0.0
 10
-2.14358
 20
3.18663
 30
0.0
 10
-2.14358
 20
3.18663
 30
0.0
 10
-2.14243
 20
3.19078
 30
0.0
 10
-2.14122
 20
3.19494
 30
0.0
 10
-2.13995
 20
3.19909
 30
0.0
 10
-2.13995
 20
3.19909
 30
0.0
 10
-2.13868
 20
3.20324
 30
0.0
 10
-2.13735
 20
3.20751
 30
0.0
 10
-2.13597
 20
3.2119
 30
0.0
 10
-2.13597
 20
3.2119
 30
0.0
 10
-2.13481
 20
3.21582
 30
0.0
 10
-2.13366
 20
3.21986
 30
0.0
 10
-2.13251
 20
3.22401
 30
0.0
 10
-2.13251
 20
3.22401
 30
0.0
 10
-2.13135
 20
3.22816
 30
0.0
 10
-2.1302
 20
3.23243
 30
0.0
 10
-2.12905
 20
3.23682
 30
0.0
 10
-2.12905
 20
3.23682
 30
0.0
 10
-2.12743
 20
3.22712
 30
0.0
 10
-2.12535
 20
3.21789
 30
0.0
 10
-2.12282
 20
3.20913
 30
0.0
 10
-2.12282
 20
3.20913
 30
0.0
 10
-2.12028
 20
3.20036
 30
0.0
 10
-2.11739
 20
3.19159
 30
0.0
 10
-2.11416
 20
3.18282
 30
0.0
 10
-2.11416
 20
3.18282
 30
0.0
 10
-2.11255
 20
3.17821
 30
0.0
 10
-2.11093
 20
3.17342
 30
0.0
 10
-2.10932
 20
3.16846
 30
0.0
 10
-2.10932
 20
3.16846
 30
0.0
 10
-2.1077
 20
3.1635
 30
0.0
 10
-2.10632
 20
3.15871
 30
0.0
 10
-2.10516
 20
3.1541
 30
0.0
 10
-2.10516
 20
3.1541
 30
0.0
 10
-2.10632
 20
3.15433
 30
0.0
 10
-2.10736
 20
3.15444
 30
0.0
 10
-2.10828
 20
3.15444
 30
0.0
 10
-2.10828
 20
3.15444
 30
0.0
 10
-2.10897
 20
3.15444
 30
0.0
 10
-2.10978
 20
3.15444
 30
0.0
 10
-2.1107
 20
3.15444
 30
0.0
 10
-2.1107
 20
3.15444
 30
0.0
 10
-2.11186
 20
3.15444
 30
0.0
 10
-2.11313
 20
3.15444
 30
0.0
 10
-2.11451
 20
3.15444
 30
0.0
 10
-2.11451
 20
3.15444
 30
0.0
 10
-2.11566
 20
3.15444
 30
0.0
 10
-2.11693
 20
3.15433
 30
0.0
 10
-2.11832
 20
3.1541
 30
0.0
 10
-2.11832
 20
3.1541
 30
0.0
 10
-2.12039
 20
3.15386
 30
0.0
 10
-2.12247
 20
3.15375
 30
0.0
 10
-2.12455
 20
3.15375
 30
0.0
 10
-2.12455
 20
3.15375
 30
0.0
 10
-2.12662
 20
3.15375
 30
0.0
 10
-2.1287
 20
3.15375
 30
0.0
 10
-2.13078
 20
3.15375
 30
0.0
 10
-2.13078
 20
3.15375
 30
0.0
 10
-2.1317
 20
3.15375
 30
0.0
 10
-2.13216
 20
3.1534
 30
0.0
 10
-2.13216
 20
3.15271
 30
0.0
 10
-2.13216
 20
3.15271
 30
0.0
 10
-2.13308
 20
3.14994
 30
0.0
 10
-2.13395
 20
3.14712
 30
0.0
 10
-2.13476
 20
3.14423
 30
0.0
 10
-2.13476
 20
3.14423
 30
0.0
 10
-2.13556
 20
3.14135
 30
0.0
 10
-2.13643
 20
3.1384
 30
0.0
 10
-2.13735
 20
3.13541
 30
0.0
 10
-2.13735
 20
3.13541
 30
0.0
 10
-2.13851
 20
3.13148
 30
0.0
 10
-2.13978
 20
3.1275
 30
0.0
 10
-2.14116
 20
3.12346
 30
0.0
 10
-2.14116
 20
3.12346
 30
0.0
 10
-2.14254
 20
3.11943
 30
0.0
 10
-2.14393
 20
3.11533
 30
0.0
 10
-2.14531
 20
3.11118
 30
0.0
 10
-2.14531
 20
3.11118
 30
0.0
 10
-2.14578
 20
3.11002
 30
0.0
 10
-2.14531
 20
3.10945
 30
0.0
 10
-2.14393
 20
3.10945
 30
0.0
 10
-2.14393
 20
3.10945
 30
0.0
 10
-2.1407
 20
3.10922
 30
0.0
 10
-2.1377
 20
3.1091
 30
0.0
 10
-2.13493
 20
3.1091
 30
0.0
 10
-2.13493
 20
3.1091
 30
0.0
 10
-2.13193
 20
3.1091
 30
0.0
 10
-2.12882
 20
3.1091
 30
0.0
 10
-2.12559
 20
3.1091
 30
0.0
 10
-2.12559
 20
3.1091
 30
0.0
 10
-2.12166
 20
3.1091
 30
0.0
 10
-2.11762
 20
3.1091
 30
0.0
 10
-2.11347
 20
3.1091
 30
0.0
 10
-2.11347
 20
3.1091
 30
0.0
 10
-2.10932
 20
3.1091
 30
0.0
 10
-2.10516
 20
3.10922
 30
0.0
 10
-2.10101
 20
3.10945
 30
0.0
 10
-2.10101
 20
3.10945
 30
0.0
 10
-2.09963
 20
3.10945
 30
0.0
 10
-2.09813
 20
3.1095
 30
0.0
 10
-2.09651
 20
3.10962
 30
0.0
 10
-2.09651
 20
3.10962
 30
0.0
 10
-2.0949
 20
3.10974
 30
0.0
 10
-2.09328
 20
3.10979
 30
0.0
 10
-2.09167
 20
3.10979
 30
0.0
 10
-2.09167
 20
3.10979
 30
0.0
 10
-2.08982
 20
3.10241
 30
0.0
 10
-2.08792
 20
3.09491
 30
0.0
 10
-2.08596
 20
3.0873
 30
0.0
 10
-2.08596
 20
3.0873
 30
0.0
 10
-2.08399
 20
3.07968
 30
0.0
 10
-2.08244
 20
3.07207
 30
0.0
 10
-2.08128
 20
3.06445
 30
0.0
 10
-2.08128
 20
3.06445
 30
0.0
 10
-2.08128
 20
3.06376
 30
0.0
 10
-2.08082
 20
3.06341
 30
0.0
 10
-2.0799
 20
3.06341
 30
0.0
 10
-2.0799
 20
3.06341
 30
0.0
 10
-2.07113
 20
3.06411
 30
0.0
 10
-2.06254
 20
3.0652
 30
0.0
 10
-2.05411
 20
3.0667
 30
0.0
 10
-2.05411
 20
3.0667
 30
0.0
 10
-2.04569
 20
3.0682
 30
0.0
 10
-2.03721
 20
3.06999
 30
0.0
 10
-2.02867
 20
3.07207
 30
0.0
 10
-2.02867
 20
3.07207
 30
0.0
 10
-2.02798
 20
3.07207
 30
0.0
 10
-2.02764
 20
3.07253
 30
0.0
 10
-2.02764
 20
3.07345
 30
0.0
  0
SPLINE
  5
6F
330
1F
100
AcDbEntity
  8
Warstwa 1
 62
   250
100
AcDbSpline
210
0.0
220
0.0
230
1.0
 70
    11
 71
     3
 72
    88
 73
    84
 74
     0
 42
0.0000000001
 43
0.0000000001
 40
0.0
 40
0.0
 40
0.0
 40
0.0
 40
0.0476190476190476
 40
0.0476190476190476
 40
0.0476190476190476
 40
0.0476190476190476
 40
0.0952380952380952
 40
0.0952380952380952
 40
0.0952380952380952
 40
0.0952380952380952
 40
0.1428571428571428
 40
0.1428571428571428
 40
0.1428571428571428
 40
0.1428571428571428
 40
0.1904761904761905
 40
0.1904761904761905
 40
0.1904761904761905
 40
0.1904761904761905
 40
0.2380952380952381
 40
0.2380952380952381
 40
0.2380952380952381
 40
0.2380952380952381
 40
0.2857142857142857
 40
0.2857142857142857
 40
0.2857142857142857
 40
0.2857142857142857
 40
0.3333333333333333
 40
0.3333333333333333
 40
0.3333333333333333
 40
0.3333333333333333
 40
0.3809523809523809
 40
0.3809523809523809
 40
0.3809523809523809
 40
0.3809523809523809
 40
0.4285714285714285
 40
0.4285714285714285
 40
0.4285714285714285
 40
0.4285714285714285
 40
0.4761904761904762
 40
0.4761904761904762
 40
0.4761904761904762
 40
0.4761904761904762
 40
0.5238095238095237
 40
0.5238095238095237
 40
0.5238095238095237
 40
0.5238095238095237
 40
0.5714285714285714
 40
0.5714285714285714
 40
0.5714285714285714
 40
0.5714285714285714
 40
0.6190476190476191
 40
0.6190476190476191
 40
0.6190476190476191
 40
0.6190476190476191
 40
0.6666666666666667
 40
0.6666666666666667
 40
0.6666666666666667
 40
0.6666666666666667
 40
0.7142857142857144
 40
0.7142857142857144
 40
0.7142857142857144
 40
0.7142857142857144
 40
0.7619047619047621
 40
0.7619047619047621
 40
0.7619047619047621
 40
0.7619047619047621
 40
0.8095238095238098
 40
0.8095238095238098
 40
0.8095238095238098
 40
0.8095238095238098
 40
0.8571428571428574
 40
0.8571428571428574
 40
0.8571428571428574
 40
0.8571428571428574
 40
0.9047619047619051
 40
0.9047619047619051
 40
0.9047619047619051
 40
0.9047619047619051
 40
0.9523809523809528
 40
0.9523809523809528
 40
0.9523809523809528
 40
0.9523809523809528
 40
1.0
 40
1.0
 40
1.0
 40
1.0
 10
-1.69495
 20
3.2337
 30
0.0
 10
-1.69656
 20
3.24108
 30
0.0
 10
-1.6991
 20
3.24841
 30
0.0
 10
-1.70256
 20
3.25568
 30
0.0
 10
-1.70256
 20
3.25568
 30
0.0
 10
-1.70603
 20
3.26295
 30
0.0
 10
-1.71029
 20
3.26958
 30
0.0
 10
-1.71537
 20
3.27558
 30
0.0
 10
-1.71537
 20
3.27558
 30
0.0
 10
-1.72045
 20
3.28158
 30
0.0
 10
-1.72639
 20
3.28654
 30
0.0
 10
-1.73319
 20
3.29046
 30
0.0
 10
-1.73319
 20
3.29046
 30
0.0
 10
-1.74
 20
3.29439
 30
0.0
 10
-1.74756
 20
3.29681
 30
0.0
 10
-1.75586
 20
3.29773
 30
0.0
 10
-1.75586
 20
3.29773
 30
0.0
 10
-1.75586
 20
3.29773
 30
0.0
 10
-1.75933
 20
3.29808
 30
0.0
 10
-1.75933
 20
3.29808
 30
0.0
 10
-1.75933
 20
3.29808
 30
0.0
 10
-1.75933
 20
3.29808
 30
0.0
 10
-1.75967
 20
3.29808
 30
0.0
 10
-1.75967
 20
3.29808
 30
0.0
 10
-1.75967
 20
3.29808
 30
0.0
 10
-1.7606
 20
3.29808
 30
0.0
 10
-1.76106
 20
3.29762
 30
0.0
 10
-1.76106
 20
3.29669
 30
0.0
 10
-1.76106
 20
3.29669
 30
0.0
 10
-1.76083
 20
3.29069
 30
0.0
 10
-1.76065
 20
3.28481
 30
0.0
 10
-1.76054
 20
3.27904
 30
0.0
 10
-1.76054
 20
3.27904
 30
0.0
 10
-1.76042
 20
3.27327
 30
0.0
 10
-1.76025
 20
3.26739
 30
0.0
 10
-1.76002
 20
3.26139
 30
0.0
 10
-1.76002
 20
3.26139
 30
0.0
 10
-1.76002
 20
3.26047
 30
0.0
 10
-1.75967
 20
3.26
 30
0.0
 10
-1.75898
 20
3.26
 30
0.0
 10
-1.75898
 20
3.26
 30
0.0
 10
-1.75852
 20
3.25977
 30
0.0
 10
-1.75806
 20
3.25966
 30
0.0
 10
-1.7576
 20
3.25966
 30
0.0
 10
-1.7576
 20
3.25966
 30
0.0
 10
-1.7569
 20
3.25966
 30
0.0
 10
-1.75633
 20
3.25954
 30
0.0
 10
-1.75586
 20
3.25931
 30
0.0
 10
-1.75586
 20
3.25931
 30
0.0
 10
-1.75402
 20
3.25885
 30
0.0
 10
-1.7524
 20
3.25833
 30
0.0
 10
-1.75102
 20
3.25776
 30
0.0
 10
-1.75102
 20
3.25776
 30
0.0
 10
-1.74963
 20
3.25718
 30
0.0
 10
-1.74814
 20
3.2562
 30
0.0
 10
-1.74652
 20
3.25481
 30
0.0
 10
-1.74652
 20
3.25481
 30
0.0
 10
-1.74652
 20
3.25481
 30
0.0
 10
-1.74652
 20
3.25516
 30
0.0
 10
-1.74652
 20
3.25516
 30
0.0
 10
-1.74652
 20
3.25516
 30
0.0
 10
-1.74398
 20
3.25147
 30
0.0
 10
-1.74231
 20
3.24806
 30
0.0
 10
-1.7415
 20
3.24495
 30
0.0
 10
-1.7415
 20
3.24495
 30
0.0
 10
-1.74069
 20
3.24183
 30
0.0
 10
-1.74006
 20
3.23866
 30
0.0
 10
-1.7396
 20
3.23543
 30
0.0
 10
-1.7396
 20
3.23543
 30
0.0
 10
-1.7396
 20
3.23474
 30
0.0
 10
-1.73914
 20
3.23439
 30
0.0
 10
-1.73821
 20
3.23439
 30
0.0
 10
-1.73821
 20
3.23439
 30
0.0
 10
-1.73129
 20
3.23439
 30
0.0
 10
-1.72431
 20
3.23422
 30
0.0
 10
-1.71727
 20
3.23387
 30
0.0
 10
-1.71727
 20
3.23387
 30
0.0
 10
-1.71024
 20
3.23353
 30
0.0
 10
-1.70326
 20
3.23289
 30
0.0
 10
-1.69633
 20
3.23197
 30
0.0
 10
-1.69633
 20
3.23197
 30
0.0
 10
-1.69495
 20
3.23197
 30
0.0
 10
-1.69449
 20
3.23255
 30
0.0
 10
-1.69495
 20
3.2337
 30
0.0
  0
SPLINE
  5
70
330
1F
100
AcDbEntity
  8
Warstwa 1
 62
   250
100
AcDbSpline
210
0.0
220
0.0
230
1.0
 70
    11
 71
     3
 72
   284
 73
   280
 74
     0
 42
0.0000000001
 43
0.0000000001
 40
0.0
 40
0.0
 40
0.0
 40
0.0
 40
0.0142857142857143
 40
0.0142857142857143
 40
0.0142857142857143
 40
0.0142857142857143
 40
0.0285714285714286
 40
0.0285714285714286
 40
0.0285714285714286
 40
0.0285714285714286
 40
0.0428571428571429
 40
0.0428571428571429
 40
0.0428571428571429
 40
0.0428571428571429
 40
0.0571428571428571
 40
0.0571428571428571
 40
0.0571428571428571
 40
0.0571428571428571
 40
0.0714285714285714
 40
0.0714285714285714
 40
0.0714285714285714
 40
0.0714285714285714
 40
0.0857142857142857
 40
0.0857142857142857
 40
0.0857142857142857
 40
0.0857142857142857
 40
0.1
 40
0.1
 40
0.1
 40
0.1
 40
0.1142857142857143
 40
0.1142857142857143
 40
0.1142857142857143
 40
0.1142857142857143
 40
0.1285714285714286
 40
0.1285714285714286
 40
0.1285714285714286
 40
0.1285714285714286
 40
0.1428571428571429
 40
0.1428571428571429
 40
0.1428571428571429
 40
0.1428571428571429
 40
0.1571428571428572
 40
0.1571428571428572
 40
0.1571428571428572
 40
0.1571428571428572
 40
0.1714285714285715
 40
0.1714285714285715
 40
0.1714285714285715
 40
0.1714285714285715
 40
0.1857142857142857
 40
0.1857142857142857
 40
0.1857142857142857
 40
0.1857142857142857
 40
0.2
 40
0.2
 40
0.2
 40
0.2
 40
0.2142857142857143
 40
0.2142857142857143
 40
0.2142857142857143
 40
0.2142857142857143
 40
0.2285714285714286
 40
0.2285714285714286
 40
0.2285714285714286
 40
0.2285714285714286
 40
0.2428571428571429
 40
0.2428571428571429
 40
0.2428571428571429
 40
0.2428571428571429
 40
0.2571428571428572
 40
0.2571428571428572
 40
0.2571428571428572
 40
0.2571428571428572
 40
0.2714285714285715
 40
0.2714285714285715
 40
0.2714285714285715
 40
0.2714285714285715
 40
0.2857142857142858
 40
0.2857142857142858
 40
0.2857142857142858
 40
0.2857142857142858
 40
0.3
 40
0.3
 40
0.3
 40
0.3
 40
0.3142857142857143
 40
0.3142857142857143
 40
0.3142857142857143
 40
0.3142857142857143
 40
0.3285714285714286
 40
0.3285714285714286
 40
0.3285714285714286
 40
0.3285714285714286
 40
0.3428571428571429
 40
0.3428571428571429
 40
0.3428571428571429
 40
0.3428571428571429
 40
0.3571428571428572
 40
0.3571428571428572
 40
0.3571428571428572
 40
0.3571428571428572
 40
0.3714285714285715
 40
0.3714285714285715
 40
0.3714285714285715
 40
0.3714285714285715
 40
0.3857142857142858
 40
0.3857142857142858
 40
0.3857142857142858
 40
0.3857142857142858
 40
0.4000000000000001
 40
0.4000000000000001
 40
0.4000000000000001
 40
0.4000000000000001
 40
0.4142857142857144
 40
0.4142857142857144
 40
0.4142857142857144
 40
0.4142857142857144
 40
0.4285714285714287
 40
0.4285714285714287
 40
0.4285714285714287
 40
0.4285714285714287
 40
0.4428571428571429
 40
0.4428571428571429
 40
0.4428571428571429
 40
0.4428571428571429
 40
0.4571428571428572
 40
0.4571428571428572
 40
0.4571428571428572
 40
0.4571428571428572
 40
0.4714285714285715
 40
0.4714285714285715
 40
0.4714285714285715
 40
0.4714285714285715
 40
0.4857142857142858
 40
0.4857142857142858
 40
0.4857142857142858
 40
0.4857142857142858
 40
0.5000000000000001
 40
0.5000000000000001
 40
0.5000000000000001
 40
0.5000000000000001
 40
0.5142857142857143
 40
0.5142857142857143
 40
0.5142857142857143
 40
0.5142857142857143
 40
0.5285714285714286
 40
0.5285714285714286
 40
0.5285714285714286
 40
0.5285714285714286
 40
0.5428571428571428
 40
0.5428571428571428
 40
0.5428571428571428
 40
0.5428571428571428
 40
0.557142857142857
 40
0.557142857142857
 40
0.557142857142857
 40
0.557142857142857
 40
0.5714285714285713
 40
0.5714285714285713
 40
0.5714285714285713
 40
0.5714285714285713
 40
0.5857142857142855
 40
0.5857142857142855
 40
0.5857142857142855
 40
0.5857142857142855
 40
0.5999999999999998
 40
0.5999999999999998
 40
0.5999999999999998
 40
0.5999999999999998
 40
0.614285714285714
 40
0.614285714285714
 40
0.614285714285714
 40
0.614285714285714
 40
0.6285714285714282
 40
0.6285714285714282
 40
0.6285714285714282
 40
0.6285714285714282
 40
0.6428571428571425
 40
0.6428571428571425
 40
0.6428571428571425
 40
0.6428571428571425
 40
0.6571428571428567
 40
0.6571428571428567
 40
0.6571428571428567
 40
0.6571428571428567
 40
0.6714285714285709
 40
0.6714285714285709
 40
0.6714285714285709
 40
0.6714285714285709
 40
0.6857142857142852
 40
0.6857142857142852
 40
0.6857142857142852
 40
0.6857142857142852
 40
0.6999999999999994
 40
0.6999999999999994
 40
0.6999999999999994
 40
0.6999999999999994
 40
0.7142857142857136
 40
0.7142857142857136
 40
0.7142857142857136
 40
0.7142857142857136
 40
0.7285714285714279
 40
0.7285714285714279
 40
0.7285714285714279
 40
0.7285714285714279
 40
0.7428571428571421
 40
0.7428571428571421
 40
0.7428571428571421
 40
0.7428571428571421
 40
0.7571428571428563
 40
0.7571428571428563
 40
0.7571428571428563
 40
0.7571428571428563
 40
0.7714285714285706
 40
0.7714285714285706
 40
0.7714285714285706
 40
0.7714285714285706
 40
0.7857142857142848
 40
0.7857142857142848
 40
0.7857142857142848
 40
0.7857142857142848
 40
0.799999999999999
 40
0.799999999999999
 40
0.799999999999999
 40
0.799999999999999
 40
0.8142857142857133
 40
0.8142857142857133
 40
0.8142857142857133
 40
0.8142857142857133
 40
0.8285714285714275
 40
0.8285714285714275
 40
0.8285714285714275
 40
0.8285714285714275
 40
0.8428571428571418
 40
0.8428571428571418
 40
0.8428571428571418
 40
0.8428571428571418
 40
0.857142857142856
 40
0.857142857142856
 40
0.857142857142856
 40
0.857142857142856
 40
0.8714285714285702
 40
0.8714285714285702
 40
0.8714285714285702
 40
0.8714285714285702
 40
0.8857142857142845
 40
0.8857142857142845
 40
0.8857142857142845
 40
0.8857142857142845
 40
0.8999999999999987
 40
0.8999999999999987
 40
0.8999999999999987
 40
0.8999999999999987
 40
0.9142857142857129
 40
0.9142857142857129
 40
0.9142857142857129
 40
0.9142857142857129
 40
0.9285714285714272
 40
0.9285714285714272
 40
0.9285714285714272
 40
0.9285714285714272
 40
0.9428571428571414
 40
0.9428571428571414
 40
0.9428571428571414
 40
0.9428571428571414
 40
0.9571428571428556
 40
0.9571428571428556
 40
0.9571428571428556
 40
0.9571428571428556
 40
0.9714285714285699
 40
0.9714285714285699
 40
0.9714285714285699
 40
0.9714285714285699
 40
0.9857142857142841
 40
0.9857142857142841
 40
0.9857142857142841
 40
0.9857142857142841
 40
1.0
 40
1.0
 40
1.0
 40
1.0
 10
-1.68907
 20
3.15444
 30
0.0
 10
-1.68907
 20
3.16413
 30
0.0
 10
-1.69108
 20
3.1733
 30
0.0
 10
-1.69512
 20
3.18196
 30
0.0
 10
-1.69512
 20
3.18196
 30
0.0
 10
-1.69916
 20
3.19061
 30
0.0
 10
-1.70453
 20
3.19822
 30
0.0
 10
-1.71122
 20
3.2048
 30
0.0
 10
-1.71122
 20
3.2048
 30
0.0
 10
-1.71791
 20
3.21138
 30
0.0
 10
-1.72564
 20
3.21657
 30
0.0
 10
-1.73441
 20
3.22038
 30
0.0
 10
-1.73441
 20
3.22038
 30
0.0
 10
-1.74317
 20
3.22418
 30
0.0
 10
-1.75229
 20
3.22609
 30
0.0
 10
-1.76175
 20
3.22609
 30
0.0
 10
-1.76175
 20
3.22609
 30
0.0
 10
-1.76175
 20
3.22609
 30
0.0
 10
-1.76556
 20
3.22609
 30
0.0
 10
-1.76556
 20
3.22609
 30
0.0
 10
-1.76556
 20
3.22609
 30
0.0
 10
-1.77455
 20
3.22609
 30
0.0
 10
-1.78309
 20
3.22412
 30
0.0
 10
-1.79117
 20
3.2202
 30
0.0
 10
-1.79117
 20
3.2202
 30
0.0
 10
-1.79924
 20
3.21628
 30
0.0
 10
-1.80651
 20
3.21109
 30
0.0
 10
-1.81297
 20
3.20463
 30
0.0
 10
-1.81297
 20
3.20463
 30
0.0
 10
-1.81297
 20
3.20578
 30
0.0
 10
-1.81286
 20
3.20647
 30
0.0
 10
-1.81263
 20
3.2067
 30
0.0
 10
-1.81263
 20
3.2067
 30
0.0
 10
-1.81193
 20
3.21178
 30
0.0
 10
-1.81118
 20
3.21714
 30
0.0
 10
-1.81038
 20
3.2228
 30
0.0
 10
-1.81038
 20
3.2228
 30
0.0
 10
-1.80957
 20
3.22845
 30
0.0
 10
-1.80819
 20
3.2337
 30
0.0
 10
-1.80622
 20
3.23855
 30
0.0
 10
-1.80622
 20
3.23855
 30
0.0
 10
-1.80426
 20
3.24339
 30
0.0
 10
-1.80155
 20
3.24766
 30
0.0
 10
-1.79809
 20
3.25135
 30
0.0
 10
-1.79809
 20
3.25135
 30
0.0
 10
-1.79463
 20
3.25504
 30
0.0
 10
-1.7899
 20
3.25758
 30
0.0
 10
-1.7839
 20
3.25897
 30
0.0
 10
-1.7839
 20
3.25897
 30
0.0
 10
-1.7839
 20
3.25897
 30
0.0
 10
-1.78286
 20
3.26035
 30
0.0
 10
-1.78286
 20
3.26035
 30
0.0
 10
-1.78286
 20
3.26035
 30
0.0
 10
-1.78263
 20
3.26358
 30
0.0
 10
-1.78252
 20
3.26658
 30
0.0
 10
-1.78252
 20
3.26935
 30
0.0
 10
-1.78252
 20
3.26935
 30
0.0
 10
-1.78252
 20
3.27235
 30
0.0
 10
-1.78252
 20
3.27546
 30
0.0
 10
-1.78252
 20
3.27869
 30
0.0
 10
-1.78252
 20
3.27869
 30
0.0
 10
-1.78252
 20
3.28169
 30
0.0
 10
-1.78246
 20
3.28464
 30
0.0
 10
-1.78234
 20
3.28752
 30
0.0
 10
-1.78234
 20
3.28752
 30
0.0
 10
-1.78223
 20
3.2904
 30
0.0
 10
-1.78217
 20
3.29335
 30
0.0
 10
-1.78217
 20
3.29635
 30
0.0
 10
-1.78217
 20
3.29635
 30
0.0
 10
-1.78217
 20
3.29727
 30
0.0
 10
-1.78275
 20
3.29773
 30
0.0
 10
-1.7839
 20
3.29773
 30
0.0
 10
-1.7839
 20
3.29773
 30
0.0
 10
-1.79682
 20
3.29565
 30
0.0
 10
-1.80795
 20
3.29087
 30
0.0
 10
-1.8173
 20
3.28337
 30
0.0
 10
-1.8173
 20
3.28337
 30
0.0
 10
-1.82664
 20
3.27587
 30
0.0
 10
-1.83443
 20
3.26687
 30
0.0
 10
-1.84066
 20
3.25637
 30
0.0
 10
-1.84066
 20
3.25637
 30
0.0
 10
-1.84689
 20
3.24587
 30
0.0
 10
-1.85151
 20
3.23445
 30
0.0
 10
-1.85451
 20
3.22211
 30
0.0
 10
-1.85451
 20
3.22211
 30
0.0
 10
-1.85751
 20
3.20976
 30
0.0
 10
-1.85901
 20
3.19771
 30
0.0
 10
-1.85901
 20
3.18594
 30
0.0
 10
-1.85901
 20
3.18594
 30
0.0
 10
-1.85901
 20
3.18594
 30
0.0
 10
-1.85901
 20
3.17175
 30
0.0
 10
-1.85901
 20
3.17175
 30
0.0
 10
-1.85901
 20
3.17175
 30
0.0
 10
-1.85901
 20
3.1609
 30
0.0
 10
-1.85785
 20
3.14988
 30
0.0
 10
-1.85554
 20
3.13869
 30
0.0
 10
-1.85554
 20
3.13869
 30
0.0
 10
-1.85324
 20
3.1275
 30
0.0
 10
-1.8496
 20
3.11695
 30
0.0
 10
-1.84464
 20
3.10702
 30
0.0
 10
-1.84464
 20
3.10702
 30
0.0
 10
-1.83968
 20
3.0971
 30
0.0
 10
-1.83322
 20
3.08845
 30
0.0
 10
-1.82526
 20
3.08107
 30
0.0
 10
-1.82526
 20
3.08107
 30
0.0
 10
-1.8173
 20
3.07368
 30
0.0
 10
-1.80755
 20
3.06838
 30
0.0
 10
-1.79601
 20
3.06514
 30
0.0
 10
-1.79601
 20
3.06514
 30
0.0
 10
-1.79694
 20
3.06514
 30
0.0
 10
-1.79659
 20
3.06503
 30
0.0
 10
-1.79498
 20
3.0648
 30
0.0
 10
-1.79498
 20
3.0648
 30
0.0
 10
-1.79336
 20
3.06457
 30
0.0
 10
-1.79221
 20
3.06434
 30
0.0
 10
-1.79151
 20
3.06411
 30
0.0
 10
-1.79151
 20
3.06411
 30
0.0
 10
-1.78944
 20
3.06341
 30
0.0
 10
-1.78748
 20
3.06307
 30
0.0
 10
-1.78563
 20
3.06307
 30
0.0
 10
-1.78563
 20
3.06307
 30
0.0
 10
-1.78563
 20
3.06307
 30
0.0
 10
-1.78425
 20
3.06307
 30
0.0
 10
-1.78425
 20
3.06307
 30
0.0
 10
-1.78425
 20
3.06307
 30
0.0
 10
-1.78332
 20
3.06307
 30
0.0
 10
-1.78286
 20
3.06353
 30
0.0
 10
-1.78286
 20
3.06445
 30
0.0
 10
-1.78286
 20
3.06445
 30
0.0
 10
-1.78286
 20
3.07068
 30
0.0
 10
-1.78286
 20
3.07691
 30
0.0
 10
-1.78286
 20
3.08314
 30
0.0
 10
-1.78286
 20
3.08314
 30
0.0
 10
-1.78286
 20
3.08937
 30
0.0
 10
-1.78298
 20
3.09572
 30
0.0
 10
-1.78321
 20
3.10218
 30
0.0
 10
-1.78321
 20
3.10218
 30
0.0
 10
-1.78321
 20
3.1031
 30
0.0
 10
-1.78367
 20
3.10356
 30
0.0
 10
-1.78459
 20
3.10356
 30
0.0
 10
-1.78459
 20
3.10356
 30
0.0
 10
-1.78898
 20
3.10402
 30
0.0
 10
-1.79267
 20
3.10552
 30
0.0
 10
-1.79567
 20
3.10806
 30
0.0
 10
-1.79567
 20
3.10806
 30
0.0
 10
-1.79867
 20
3.1106
 30
0.0
 10
-1.80115
 20
3.1136
 30
0.0
 10
-1.80311
 20
3.11706
 30
0.0
 10
-1.80311
 20
3.11706
 30
0.0
 10
-1.80507
 20
3.12052
 30
0.0
 10
-1.80645
 20
3.12427
 30
0.0
 10
-1.80726
 20
3.12831
 30
0.0
 10
-1.80726
 20
3.12831
 30
0.0
 10
-1.80807
 20
3.13235
 30
0.0
 10
-1.80847
 20
3.13633
 30
0.0
 10
-1.80847
 20
3.14025
 30
0.0
 10
-1.80847
 20
3.14025
 30
0.0
 10
-1.80847
 20
3.14025
 30
0.0
 10
-1.80847
 20
3.14129
 30
0.0
 10
-1.80847
 20
3.14129
 30
0.0
 10
-1.80847
 20
3.14129
 30
0.0
 10
-1.80847
 20
3.14198
 30
0.0
 10
-1.80853
 20
3.14267
 30
0.0
 10
-1.80865
 20
3.14337
 30
0.0
 10
-1.80865
 20
3.14337
 30
0.0
 10
-1.80876
 20
3.14406
 30
0.0
 10
-1.80882
 20
3.14475
 30
0.0
 10
-1.80882
 20
3.14544
 30
0.0
 10
-1.80882
 20
3.14544
 30
0.0
 10
-1.80882
 20
3.15029
 30
0.0
 10
-1.8079
 20
3.15502
 30
0.0
 10
-1.80605
 20
3.15963
 30
0.0
 10
-1.80605
 20
3.15963
 30
0.0
 10
-1.8042
 20
3.16425
 30
0.0
 10
-1.80161
 20
3.16829
 30
0.0
 10
-1.79826
 20
3.17175
 30
0.0
 10
-1.79826
 20
3.17175
 30
0.0
 10
-1.79492
 20
3.17521
 30
0.0
 10
-1.79105
 20
3.17798
 30
0.0
 10
-1.78667
 20
3.18005
 30
0.0
 10
-1.78667
 20
3.18005
 30
0.0
 10
-1.78228
 20
3.18213
 30
0.0
 10
-1.77755
 20
3.18317
 30
0.0
 10
-1.77248
 20
3.18317
 30
0.0
 10
-1.77248
 20
3.18317
 30
0.0
 10
-1.77248
 20
3.18317
 30
0.0
 10
-1.76832
 20
3.18317
 30
0.0
 10
-1.76832
 20
3.18317
 30
0.0
 10
-1.76832
 20
3.18317
 30
0.0
 10
-1.76371
 20
3.18317
 30
0.0
 10
-1.75933
 20
3.18213
 30
0.0
 10
-1.75517
 20
3.18005
 30
0.0
 10
-1.75517
 20
3.18005
 30
0.0
 10
-1.75102
 20
3.17798
 30
0.0
 10
-1.74739
 20
3.17527
 30
0.0
 10
-1.74427
 20
3.17192
 30
0.0
 10
-1.74427
 20
3.17192
 30
0.0
 10
-1.74116
 20
3.16857
 30
0.0
 10
-1.73873
 20
3.16477
 30
0.0
 10
-1.737
 20
3.1605
 30
0.0
 10
-1.737
 20
3.1605
 30
0.0
 10
-1.73527
 20
3.15623
 30
0.0
 10
-1.73441
 20
3.15179
 30
0.0
 10
-1.73441
 20
3.14717
 30
0.0
 10
-1.73441
 20
3.14717
 30
0.0
 10
-1.73441
 20
3.14648
 30
0.0
 10
-1.73446
 20
3.14585
 30
0.0
 10
-1.73458
 20
3.14527
 30
0.0
 10
-1.73458
 20
3.14527
 30
0.0
 10
-1.73469
 20
3.14469
 30
0.0
 10
-1.73475
 20
3.14406
 30
0.0
 10
-1.73475
 20
3.14337
 30
0.0
 10
-1.73475
 20
3.14337
 30
0.0
 10
-1.73475
 20
3.14337
 30
0.0
 10
-1.73475
 20
3.14094
 30
0.0
 10
-1.73475
 20
3.14094
 30
0.0
 10
-1.73475
 20
3.14094
 30
0.0
 10
-1.73475
 20
3.13702
 30
0.0
 10
-1.73516
 20
3.13298
 30
0.0
 10
-1.73596
 20
3.12883
 30
0.0
 10
-1.73596
 20
3.12883
 30
0.0
 10
-1.73677
 20
3.12468
 30
0.0
 10
-1.73816
 20
3.12081
 30
0.0
 10
-1.74012
 20
3.11723
 30
0.0
 10
-1.74012
 20
3.11723
 30
0.0
 10
-1.74208
 20
3.11366
 30
0.0
 10
-1.74456
 20
3.11066
 30
0.0
 10
-1.74756
 20
3.10824
 30
0.0
 10
-1.74756
 20
3.10824
 30
0.0
 10
-1.75056
 20
3.10581
 30
0.0
 10
-1.75425
 20
3.10426
 30
0.0
 10
-1.75863
 20
3.10356
 30
0.0
 10
-1.75863
 20
3.10356
 30
0.0
 10
-1.75933
 20
3.10356
 30
0.0
 10
-1.75967
 20
3.1031
 30
0.0
 10
-1.75967
 20
3.10218
 30
0.0
 10
-1.75967
 20
3.10218
 30
0.0
 10
-1.75967
 20
3.10218
 30
0.0
 10
-1.75967
 20
3.09803
 30
0.0
 10
-1.75967
 20
3.09803
 30
0.0
 10
-1.75967
 20
3.09803
 30
0.0
 10
-1.75967
 20
3.0948
 30
0.0
 10
-1.75979
 20
3.09174
 30
0.0
 10
-1.76002
 20
3.08885
 30
0.0
 10
-1.76002
 20
3.08885
 30
0.0
 10
-1.76025
 20
3.08597
 30
0.0
 10
-1.76048
 20
3.08291
 30
0.0
 10
-1.76071
 20
3.07968
 30
0.0
 10
-1.76071
 20
3.07968
 30
0.0
 10
-1.7614
 20
3.07484
 30
0.0
 10
-1.76175
 20
3.06964
 30
0.0
 10
-1.76175
 20
3.06411
 30
0.0
 10
-1.76175
 20
3.06411
 30
0.0
 10
-1.76175
 20
3.06318
 30
0.0
 10
-1.76117
 20
3.06272
 30
0.0
 10
-1.76002
 20
3.06272
 30
0.0
 10
-1.76002
 20
3.06272
 30
0.0
 10
-1.74963
 20
3.06411
 30
0.0
 10
-1.74017
 20
3.06751
 30
0.0
 10
-1.73164
 20
3.07293
 30
0.0
 10
-1.73164
 20
3.07293
 30
0.0
 10
-1.7231
 20
3.07835
 30
0.0
 10
-1.71572
 20
3.08505
 30
0.0
 10
-1.70949
 20
3.09301
 30
0.0
 10
-1.70949
 20
3.09301
 30
0.0
 10
-1.70326
 20
3.10097
 30
0.0
 10
-1.69841
 20
3.10985
 30
0.0
 10
-1.69495
 20
3.11966
 30
0.0
 10
-1.69495
 20
3.11966
 30
0.0
 10
-1.69149
 20
3.12946
 30
0.0
 10
-1.68964
 20
3.13944
 30
0.0
 10
-1.68941
 20
3.1496
 30
0.0
 10
-1.68941
 20
3.1496
 30
0.0
 10
-1.68941
 20
3.15052
 30
0.0
 10
-1.68935
 20
3.15133
 30
0.0
 10
-1.68924
 20
3.15202
 30
0.0
 10
-1.68924
 20
3.15202
 30
0.0
 10
-1.68912
 20
3.15271
 30
0.0
 10
-1.68907
 20
3.15352
 30
0.0
 10
-1.68907
 20
3.15444
 30
0.0
  0
SPLINE
  5
71
330
1F
100
AcDbEntity
  8
Warstwa 1
 62
   250
100
AcDbSpline
210
0.0
220
0.0
230
1.0
 70
    11
 71
     3
 72
   116
 73
   112
 74
     0
 42
0.0000000001
 43
0.0000000001
 40
0.0
 40
0.0
 40
0.0
 40
0.0
 40
0.0357142857142857
 40
0.0357142857142857
 40
0.0357142857142857
 40
0.0357142857142857
 40
0.0714285714285714
 40
0.0714285714285714
 40
0.0714285714285714
 40
0.0714285714285714
 40
0.1071428571428571
 40
0.1071428571428571
 40
0.1071428571428571
 40
0.1071428571428571
 40
0.1428571428571428
 40
0.1428571428571428
 40
0.1428571428571428
 40
0.1428571428571428
 40
0.1785714285714285
 40
0.1785714285714285
 40
0.1785714285714285
 40
0.1785714285714285
 40
0.2142857142857142
 40
0.2142857142857142
 40
0.2142857142857142
 40
0.2142857142857142
 40
0.2499999999999999
 40
0.2499999999999999
 40
0.2499999999999999
 40
0.2499999999999999
 40
0.2857142857142856
 40
0.2857142857142856
 40
0.2857142857142856
 40
0.2857142857142856
 40
0.3214285714285713
 40
0.3214285714285713
 40
0.3214285714285713
 40
0.3214285714285713
 40
0.357142857142857
 40
0.357142857142857
 40
0.357142857142857
 40
0.357142857142857
 40
0.3928571428571427
 40
0.3928571428571427
 40
0.3928571428571427
 40
0.3928571428571427
 40
0.4285714285714284
 40
0.4285714285714284
 40
0.4285714285714284
 40
0.4285714285714284
 40
0.4642857142857141
 40
0.4642857142857141
 40
0.4642857142857141
 40
0.4642857142857141
 40
0.4999999999999998
 40
0.4999999999999998
 40
0.4999999999999998
 40
0.4999999999999998
 40
0.5357142857142856
 40
0.5357142857142856
 40
0.5357142857142856
 40
0.5357142857142856
 40
0.5714285714285713
 40
0.5714285714285713
 40
0.5714285714285713
 40
0.5714285714285713
 40
0.607142857142857
 40
0.607142857142857
 40
0.607142857142857
 40
0.607142857142857
 40
0.6428571428571427
 40
0.6428571428571427
 40
0.6428571428571427
 40
0.6428571428571427
 40
0.6785714285714284
 40
0.6785714285714284
 40
0.6785714285714284
 40
0.6785714285714284
 40
0.7142857142857141
 40
0.7142857142857141
 40
0.7142857142857141
 40
0.7142857142857141
 40
0.7499999999999998
 40
0.7499999999999998
 40
0.7499999999999998
 40
0.7499999999999998
 40
0.7857142857142855
 40
0.7857142857142855
 40
0.7857142857142855
 40
0.7857142857142855
 40
0.8214285714285712
 40
0.8214285714285712
 40
0.8214285714285712
 40
0.8214285714285712
 40
0.8571428571428569
 40
0.8571428571428569
 40
0.8571428571428569
 40
0.8571428571428569
 40
0.8928571428571426
 40
0.8928571428571426
 40
0.8928571428571426
 40
0.8928571428571426
 40
0.9285714285714283
 40
0.9285714285714283
 40
0.9285714285714283
 40
0.9285714285714283
 40
0.964285714285714
 40
0.964285714285714
 40
0.964285714285714
 40
0.964285714285714
 40
1.0
 40
1.0
 40
1.0
 40
1.0
 10
-1.35883
 20
3.07413
 30
0.0
 10
-1.36525
 20
3.0845
 30
0.0
 10
-1.372
 20
3.09463
 30
0.0
 10
-1.37908
 20
3.1045
 30
0.0
 10
-1.37908
 20
3.1045
 30
0.0
 10
-1.38616
 20
3.11438
 30
0.0
 10
-1.3934
 20
3.12418
 30
0.0
 10
-1.40081
 20
3.13389
 30
0.0
 10
-1.40081
 20
3.13389
 30
0.0
 10
-1.40361
 20
3.13768
 30
0.0
 10
-1.40641
 20
3.14138
 30
0.0
 10
-1.4092
 20
3.145
 30
0.0
 10
-1.4092
 20
3.145
 30
0.0
 10
-1.412
 20
3.14862
 30
0.0
 10
-1.4148
 20
3.15233
 30
0.0
 10
-1.4176
 20
3.15611
 30
0.0
 10
-1.4176
 20
3.15611
 30
0.0
 10
-1.41513
 20
3.15891
 30
0.0
 10
-1.41274
 20
3.16175
 30
0.0
 10
-1.41044
 20
3.16463
 30
0.0
 10
-1.41044
 20
3.16463
 30
0.0
 10
-1.40813
 20
3.16751
 30
0.0
 10
-1.40566
 20
3.17044
 30
0.0
 10
-1.40303
 20
3.1734
 30
0.0
 10
-1.40303
 20
3.1734
 30
0.0
 10
-1.39595
 20
3.18163
 30
0.0
 10
-1.38891
 20
3.18982
 30
0.0
 10
-1.38192
 20
3.19797
 30
0.0
 10
-1.38192
 20
3.19797
 30
0.0
 10
-1.37492
 20
3.20612
 30
0.0
 10
-1.36813
 20
3.21447
 30
0.0
 10
-1.36154
 20
3.22303
 30
0.0
 10
-1.36154
 20
3.22303
 30
0.0
 10
-1.36089
 20
3.22369
 30
0.0
 10
-1.36105
 20
3.22419
 30
0.0
 10
-1.36204
 20
3.22452
 30
0.0
 10
-1.36204
 20
3.22452
 30
0.0
 10
-1.36912
 20
3.22616
 30
0.0
 10
-1.3762
 20
3.22756
 30
0.0
 10
-1.38328
 20
3.22871
 30
0.0
 10
-1.38328
 20
3.22871
 30
0.0
 10
-1.39035
 20
3.22987
 30
0.0
 10
-1.3976
 20
3.23077
 30
0.0
 10
-1.40501
 20
3.23143
 30
0.0
 10
-1.40501
 20
3.23143
 30
0.0
 10
-1.40517
 20
3.23143
 30
0.0
 10
-1.40542
 20
3.23127
 30
0.0
 10
-1.40575
 20
3.23094
 30
0.0
 10
-1.40575
 20
3.23094
 30
0.0
 10
-1.40953
 20
3.22518
 30
0.0
 10
-1.41348
 20
3.21958
 30
0.0
 10
-1.4176
 20
3.21415
 30
0.0
 10
-1.4176
 20
3.21415
 30
0.0
 10
-1.42172
 20
3.20871
 30
0.0
 10
-1.42583
 20
3.20328
 30
0.0
 10
-1.42995
 20
3.19785
 30
0.0
 10
-1.42995
 20
3.19785
 30
0.0
 10
-1.43275
 20
3.19439
 30
0.0
 10
-1.43587
 20
3.19089
 30
0.0
 10
-1.43933
 20
3.18735
 30
0.0
 10
-1.43933
 20
3.18735
 30
0.0
 10
-1.44279
 20
3.18381
 30
0.0
 10
-1.44583
 20
3.18015
 30
0.0
 10
-1.44847
 20
3.17636
 30
0.0
 10
-1.44847
 20
3.17636
 30
0.0
 10
-1.44847
 20
3.17636
 30
0.0
 10
-1.44871
 20
3.17587
 30
0.0
 10
-1.44871
 20
3.17587
 30
0.0
 10
-1.44871
 20
3.17587
 30
0.0
 10
-1.44888
 20
3.17077
 30
0.0
 10
-1.44921
 20
3.16566
 30
0.0
 10
-1.4497
 20
3.16056
 30
0.0
 10
-1.4497
 20
3.16056
 30
0.0
 10
-1.4502
 20
3.15546
 30
0.0
 10
-1.44995
 20
3.15052
 30
0.0
 10
-1.44896
 20
3.14574
 30
0.0
 10
-1.44896
 20
3.14574
 30
0.0
 10
-1.44896
 20
3.14574
 30
0.0
 10
-1.44649
 20
3.13315
 30
0.0
 10
-1.44649
 20
3.13315
 30
0.0
 10
-1.44649
 20
3.13315
 30
0.0
 10
-1.44419
 20
3.12953
 30
0.0
 10
-1.44168
 20
3.12591
 30
0.0
 10
-1.43896
 20
3.12228
 30
0.0
 10
-1.43896
 20
3.12228
 30
0.0
 10
-1.43624
 20
3.11866
 30
0.0
 10
-1.43357
 20
3.11512
 30
0.0
 10
-1.43093
 20
3.11166
 30
0.0
 10
-1.43093
 20
3.11166
 30
0.0
 10
-1.42567
 20
3.10426
 30
0.0
 10
-1.42044
 20
3.09681
 30
0.0
 10
-1.41525
 20
3.08932
 30
0.0
 10
-1.41525
 20
3.08932
 30
0.0
 10
-1.41007
 20
3.08183
 30
0.0
 10
-1.40517
 20
3.07413
 30
0.0
 10
-1.40056
 20
3.06623
 30
0.0
 10
-1.40056
 20
3.06623
 30
0.0
 10
-1.40023
 20
3.0659
 30
0.0
 10
-1.39998
 20
3.06573
 30
0.0
 10
-1.39982
 20
3.06573
 30
0.0
 10
-1.39982
 20
3.06573
 30
0.0
 10
-1.39291
 20
3.06639
 30
0.0
 10
-1.38607
 20
3.06726
 30
0.0
 10
-1.37932
 20
3.06833
 30
0.0
 10
-1.37932
 20
3.06833
 30
0.0
 10
-1.37257
 20
3.0694
 30
0.0
 10
-1.36591
 20
3.07084
 30
0.0
 10
-1.35932
 20
3.07265
 30
0.0
 10
-1.35932
 20
3.07265
 30
0.0
 10
-1.35866
 20
3.07281
 30
0.0
 10
-1.3585
 20
3.07331
 30
0.0
 10
-1.35883
 20
3.07413
 30
0.0
  0
SPLINE
  5
72
330
1F
100
AcDbEntity
  8
Warstwa 1
 62
   250
100
AcDbSpline
210
0.0
220
0.0
230
1.0
 70
    11
 71
     3
 72
    64
 73
    60
 74
     0
 42
0.0000000001
 43
0.0000000001
 40
0.0
 40
0.0
 40
0.0
 40
0.0
 40
0.0666666666666667
 40
0.0666666666666667
 40
0.0666666666666667
 40
0.0666666666666667
 40
0.1333333333333333
 40
0.1333333333333333
 40
0.1333333333333333
 40
0.1333333333333333
 40
0.2
 40
0.2
 40
0.2
 40
0.2
 40
0.2666666666666667
 40
0.2666666666666667
 40
0.2666666666666667
 40
0.2666666666666667
 40
0.3333333333333333
 40
0.3333333333333333
 40
0.3333333333333333
 40
0.3333333333333333
 40
0.4
 40
0.4
 40
0.4
 40
0.4
 40
0.4666666666666666
 40
0.4666666666666666
 40
0.4666666666666666
 40
0.4666666666666666
 40
0.5333333333333333
 40
0.5333333333333333
 40
0.5333333333333333
 40
0.5333333333333333
 40
0.6
 40
0.6
 40
0.6
 40
0.6
 40
0.6666666666666666
 40
0.6666666666666666
 40
0.6666666666666666
 40
0.6666666666666666
 40
0.7333333333333333
 40
0.7333333333333333
 40
0.7333333333333333
 40
0.7333333333333333
 40
0.7999999999999999
 40
0.7999999999999999
 40
0.7999999999999999
 40
0.7999999999999999
 40
0.8666666666666666
 40
0.8666666666666666
 40
0.8666666666666666
 40
0.8666666666666666
 40
0.9333333333333332
 40
0.9333333333333332
 40
0.9333333333333332
 40
0.9333333333333332
 40
1.0
 40
1.0
 40
1.0
 40
1.0
 10
-1.45933
 20
3.06796
 30
0.0
 10
-1.46081
 20
3.08129
 30
0.0
 10
-1.46188
 20
3.09467
 30
0.0
 10
-1.46254
 20
3.10808
 30
0.0
 10
-1.46254
 20
3.10808
 30
0.0
 10
-1.4632
 20
3.1215
 30
0.0
 10
-1.46353
 20
3.13496
 30
0.0
 10
-1.46353
 20
3.14846
 30
0.0
 10
-1.46353
 20
3.14846
 30
0.0
 10
-1.46353
 20
3.16196
 30
0.0
 10
-1.4632
 20
3.17538
 30
0.0
 10
-1.46254
 20
3.18871
 30
0.0
 10
-1.46254
 20
3.18871
 30
0.0
 10
-1.46188
 20
3.20204
 30
0.0
 10
-1.46081
 20
3.21546
 30
0.0
 10
-1.45933
 20
3.22896
 30
0.0
 10
-1.45933
 20
3.22896
 30
0.0
 10
-1.45933
 20
3.22962
 30
0.0
 10
-1.45966
 20
3.22995
 30
0.0
 10
-1.46032
 20
3.22995
 30
0.0
 10
-1.46032
 20
3.22995
 30
0.0
 10
-1.46575
 20
3.22929
 30
0.0
 10
-1.47114
 20
3.22843
 30
0.0
 10
-1.4765
 20
3.22736
 30
0.0
 10
-1.4765
 20
3.22736
 30
0.0
 10
-1.48185
 20
3.22629
 30
0.0
 10
-1.48715
 20
3.22509
 30
0.0
 10
-1.49242
 20
3.22378
 30
0.0
 10
-1.49242
 20
3.22378
 30
0.0
 10
-1.49242
 20
3.22378
 30
0.0
 10
-1.49316
 20
3.22303
 30
0.0
 10
-1.49316
 20
3.22303
 30
0.0
 10
-1.49316
 20
3.22303
 30
0.0
 10
-1.49613
 20
3.21069
 30
0.0
 10
-1.49843
 20
3.19822
 30
0.0
 10
-1.50008
 20
3.18562
 30
0.0
 10
-1.50008
 20
3.18562
 30
0.0
 10
-1.50172
 20
3.17303
 30
0.0
 10
-1.50255
 20
3.16031
 30
0.0
 10
-1.50255
 20
3.14747
 30
0.0
 10
-1.50255
 20
3.14747
 30
0.0
 10
-1.50255
 20
3.12261
 30
0.0
 10
-1.49958
 20
3.09825
 30
0.0
 10
-1.49366
 20
3.07438
 30
0.0
 10
-1.49366
 20
3.07438
 30
0.0
 10
-1.49366
 20
3.07388
 30
0.0
 10
-1.49341
 20
3.07364
 30
0.0
 10
-1.49292
 20
3.07364
 30
0.0
 10
-1.49292
 20
3.07364
 30
0.0
 10
-1.48748
 20
3.07232
 30
0.0
 10
-1.48209
 20
3.07108
 30
0.0
 10
-1.47674
 20
3.06993
 30
0.0
 10
-1.47674
 20
3.06993
 30
0.0
 10
-1.47139
 20
3.06878
 30
0.0
 10
-1.466
 20
3.06779
 30
0.0
 10
-1.46057
 20
3.06697
 30
0.0
 10
-1.46057
 20
3.06697
 30
0.0
 10
-1.45974
 20
3.06697
 30
0.0
 10
-1.45933
 20
3.0673
 30
0.0
 10
-1.45933
 20
3.06796
 30
0.0
  0
SPLINE
  5
73
330
1F
100
AcDbEntity
  8
Warstwa 1
 62
   250
100
AcDbSpline
210
0.0
220
0.0
230
1.0
 70
    11
 71
     3
 72
    56
 73
    52
 74
     0
 42
0.0000000001
 43
0.0000000001
 40
0.0
 40
0.0
 40
0.0
 40
0.0
 40
0.0769230769230769
 40
0.0769230769230769
 40
0.0769230769230769
 40
0.0769230769230769
 40
0.1538461538461539
 40
0.1538461538461539
 40
0.1538461538461539
 40
0.1538461538461539
 40
0.2307692307692308
 40
0.2307692307692308
 40
0.2307692307692308
 40
0.2307692307692308
 40
0.3076923076923077
 40
0.3076923076923077
 40
0.3076923076923077
 40
0.3076923076923077
 40
0.3846153846153846
 40
0.3846153846153846
 40
0.3846153846153846
 40
0.3846153846153846
 40
0.4615384615384616
 40
0.4615384615384616
 40
0.4615384615384616
 40
0.4615384615384616
 40
0.5384615384615385
 40
0.5384615384615385
 40
0.5384615384615385
 40
0.5384615384615385
 40
0.6153846153846154
 40
0.6153846153846154
 40
0.6153846153846154
 40
0.6153846153846154
 40
0.6923076923076923
 40
0.6923076923076923
 40
0.6923076923076923
 40
0.6923076923076923
 40
0.7692307692307692
 40
0.7692307692307692
 40
0.7692307692307692
 40
0.7692307692307692
 40
0.846153846153846
 40
0.846153846153846
 40
0.846153846153846
 40
0.846153846153846
 40
0.9230769230769229
 40
0.9230769230769229
 40
0.9230769230769229
 40
0.9230769230769229
 40
1.0
 40
1.0
 40
1.0
 40
1.0
 10
-1.12072
 20
3.1008
 30
0.0
 10
-1.12072
 20
3.10179
 30
0.0
 10
-1.12114
 20
3.10212
 30
0.0
 10
-1.12196
 20
3.10179
 30
0.0
 10
-1.12196
 20
3.10179
 30
0.0
 10
-1.13101
 20
3.09965
 30
0.0
 10
-1.14007
 20
3.09821
 30
0.0
 10
-1.14912
 20
3.09747
 30
0.0
 10
-1.14912
 20
3.09747
 30
0.0
 10
-1.15818
 20
3.09673
 30
0.0
 10
-1.16731
 20
3.09635
 30
0.0
 10
-1.17653
 20
3.09635
 30
0.0
 10
-1.17653
 20
3.09635
 30
0.0
 10
-1.17653
 20
3.09635
 30
0.0
 10
-1.18122
 20
3.09635
 30
0.0
 10
-1.18122
 20
3.09635
 30
0.0
 10
-1.18122
 20
3.09635
 30
0.0
 10
-1.18188
 20
3.09635
 30
0.0
 10
-1.18221
 20
3.09603
 30
0.0
 10
-1.18221
 20
3.09537
 30
0.0
 10
-1.18221
 20
3.09537
 30
0.0
 10
-1.18221
 20
3.09537
 30
0.0
 10
-1.18221
 20
3.06573
 30
0.0
 10
-1.18221
 20
3.06573
 30
0.0
 10
-1.18221
 20
3.06573
 30
0.0
 10
-1.18221
 20
3.06508
 30
0.0
 10
-1.18188
 20
3.06475
 30
0.0
 10
-1.18122
 20
3.06475
 30
0.0
 10
-1.18122
 20
3.06475
 30
0.0
 10
-1.18122
 20
3.06475
 30
0.0
 10
-1.17801
 20
3.06475
 30
0.0
 10
-1.17801
 20
3.06475
 30
0.0
 10
-1.17801
 20
3.06475
 30
0.0
 10
-1.16912
 20
3.06475
 30
0.0
 10
-1.16032
 20
3.06532
 30
0.0
 10
-1.15159
 20
3.06647
 30
0.0
 10
-1.15159
 20
3.06647
 30
0.0
 10
-1.14287
 20
3.06763
 30
0.0
 10
-1.13431
 20
3.06969
 30
0.0
 10
-1.12591
 20
3.07265
 30
0.0
 10
-1.12591
 20
3.07265
 30
0.0
 10
-1.12542
 20
3.07265
 30
0.0
 10
-1.12517
 20
3.0729
 30
0.0
 10
-1.12517
 20
3.07339
 30
0.0
 10
-1.12517
 20
3.07339
 30
0.0
 10
-1.12435
 20
3.078
 30
0.0
 10
-1.12352
 20
3.08261
 30
0.0
 10
-1.1227
 20
3.08722
 30
0.0
 10
-1.1227
 20
3.08722
 30
0.0
 10
-1.12188
 20
3.09183
 30
0.0
 10
-1.12122
 20
3.09635
 30
0.0
 10
-1.12072
 20
3.1008
 30
0.0
  0
SPLINE
  5
74
330
1F
100
AcDbEntity
  8
Warstwa 1
 62
   250
100
AcDbSpline
210
0.0
220
0.0
230
1.0
 70
    11
 71
     3
 72
    68
 73
    64
 74
     0
 42
0.0000000001
 43
0.0000000001
 40
0.0
 40
0.0
 40
0.0
 40
0.0
 40
0.0625
 40
0.0625
 40
0.0625
 40
0.0625
 40
0.125
 40
0.125
 40
0.125
 40
0.125
 40
0.1875
 40
0.1875
 40
0.1875
 40
0.1875
 40
0.25
 40
0.25
 40
0.25
 40
0.25
 40
0.3125
 40
0.3125
 40
0.3125
 40
0.3125
 40
0.375
 40
0.375
 40
0.375
 40
0.375
 40
0.4375
 40
0.4375
 40
0.4375
 40
0.4375
 40
0.5
 40
0.5
 40
0.5
 40
0.5
 40
0.5625
 40
0.5625
 40
0.5625
 40
0.5625
 40
0.625
 40
0.625
 40
0.625
 40
0.625
 40
0.6875
 40
0.6875
 40
0.6875
 40
0.6875
 40
0.75
 40
0.75
 40
0.75
 40
0.75
 40
0.8125
 40
0.8125
 40
0.8125
 40
0.8125
 40
0.875
 40
0.875
 40
0.875
 40
0.875
 40
0.9375
 40
0.9375
 40
0.9375
 40
0.9375
 40
1.0
 40
1.0
 40
1.0
 40
1.0
 10
-1.19678
 20
3.06672
 30
0.0
 10
-1.19761
 20
3.08072
 30
0.0
 10
-1.19822
 20
3.09463
 30
0.0
 10
-1.19863
 20
3.10845
 30
0.0
 10
-1.19863
 20
3.10845
 30
0.0
 10
-1.19905
 20
3.12228
 30
0.0
 10
-1.19925
 20
3.13619
 30
0.0
 10
-1.19925
 20
3.15019
 30
0.0
 10
-1.19925
 20
3.15019
 30
0.0
 10
-1.19925
 20
3.16352
 30
0.0
 10
-1.19905
 20
3.1769
 30
0.0
 10
-1.19863
 20
3.19032
 30
0.0
 10
-1.19863
 20
3.19032
 30
0.0
 10
-1.19822
 20
3.20373
 30
0.0
 10
-1.19761
 20
3.21711
 30
0.0
 10
-1.19678
 20
3.23044
 30
0.0
 10
-1.19678
 20
3.23044
 30
0.0
 10
-1.19662
 20
3.2311
 30
0.0
 10
-1.19703
 20
3.23143
 30
0.0
 10
-1.19802
 20
3.23143
 30
0.0
 10
-1.19802
 20
3.23143
 30
0.0
 10
-1.20361
 20
3.23061
 30
0.0
 10
-1.20917
 20
3.22966
 30
0.0
 10
-1.21469
 20
3.22859
 30
0.0
 10
-1.21469
 20
3.22859
 30
0.0
 10
-1.2202
 20
3.22752
 30
0.0
 10
-1.22559
 20
3.226
 30
0.0
 10
-1.23086
 20
3.22402
 30
0.0
 10
-1.23086
 20
3.22402
 30
0.0
 10
-1.23086
 20
3.22402
 30
0.0
 10
-1.2316
 20
3.22328
 30
0.0
 10
-1.2316
 20
3.22328
 30
0.0
 10
-1.2316
 20
3.22328
 30
0.0
 10
-1.23407
 20
3.21061
 30
0.0
 10
-1.23588
 20
3.19797
 30
0.0
 10
-1.23703
 20
3.18538
 30
0.0
 10
-1.23703
 20
3.18538
 30
0.0
 10
-1.23819
 20
3.17278
 30
0.0
 10
-1.23876
 20
3.15998
 30
0.0
 10
-1.23876
 20
3.14698
 30
0.0
 10
-1.23876
 20
3.14698
 30
0.0
 10
-1.23876
 20
3.13463
 30
0.0
 10
-1.23823
 20
3.12241
 30
0.0
 10
-1.23716
 20
3.11031
 30
0.0
 10
-1.23716
 20
3.11031
 30
0.0
 10
-1.23609
 20
3.09821
 30
0.0
 10
-1.2344
 20
3.08623
 30
0.0
 10
-1.23209
 20
3.07438
 30
0.0
 10
-1.23209
 20
3.07438
 30
0.0
 10
-1.23209
 20
3.07388
 30
0.0
 10
-1.23185
 20
3.07364
 30
0.0
 10
-1.23135
 20
3.07364
 30
0.0
 10
-1.23135
 20
3.07364
 30
0.0
 10
-1.22609
 20
3.07183
 30
0.0
 10
-1.22061
 20
3.07026
 30
0.0
 10
-1.21493
 20
3.06894
 30
0.0
 10
-1.21493
 20
3.06894
 30
0.0
 10
-1.20925
 20
3.06763
 30
0.0
 10
-1.20361
 20
3.06656
 30
0.0
 10
-1.19802
 20
3.06573
 30
0.0
 10
-1.19802
 20
3.06573
 30
0.0
 10
-1.19703
 20
3.06573
 30
0.0
 10
-1.19662
 20
3.06606
 30
0.0
 10
-1.19678
 20
3.06672
 30
0.0
  0
SPLINE
  5
75
330
1F
100
AcDbEntity
  8
Warstwa 1
 62
   250
100
AcDbSpline
210
0.0
220
0.0
230
1.0
 70
    11
 71
     3
 72
   308
 73
   304
 74
     0
 42
0.0000000001
 43
0.0000000001
 40
0.0
 40
0.0
 40
0.0
 40
0.0
 40
0.0131578947368421
 40
0.0131578947368421
 40
0.0131578947368421
 40
0.0131578947368421
 40
0.0263157894736842
 40
0.0263157894736842
 40
0.0263157894736842
 40
0.0263157894736842
 40
0.0394736842105263
 40
0.0394736842105263
 40
0.0394736842105263
 40
0.0394736842105263
 40
0.0526315789473684
 40
0.0526315789473684
 40
0.0526315789473684
 40
0.0526315789473684
 40
0.0657894736842105
 40
0.0657894736842105
 40
0.0657894736842105
 40
0.0657894736842105
 40
0.0789473684210526
 40
0.0789473684210526
 40
0.0789473684210526
 40
0.0789473684210526
 40
0.0921052631578947
 40
0.0921052631578947
 40
0.0921052631578947
 40
0.0921052631578947
 40
0.1052631578947368
 40
0.1052631578947368
 40
0.1052631578947368
 40
0.1052631578947368
 40
0.1184210526315789
 40
0.1184210526315789
 40
0.1184210526315789
 40
0.1184210526315789
 40
0.131578947368421
 40
0.131578947368421
 40
0.131578947368421
 40
0.131578947368421
 40
0.1447368421052632
 40
0.1447368421052632
 40
0.1447368421052632
 40
0.1447368421052632
 40
0.1578947368421053
 40
0.1578947368421053
 40
0.1578947368421053
 40
0.1578947368421053
 40
0.1710526315789473
 40
0.1710526315789473
 40
0.1710526315789473
 40
0.1710526315789473
 40
0.1842105263157894
 40
0.1842105263157894
 40
0.1842105263157894
 40
0.1842105263157894
 40
0.1973684210526315
 40
0.1973684210526315
 40
0.1973684210526315
 40
0.1973684210526315
 40
0.2105263157894736
 40
0.2105263157894736
 40
0.2105263157894736
 40
0.2105263157894736
 40
0.2236842105263157
 40
0.2236842105263157
 40
0.2236842105263157
 40
0.2236842105263157
 40
0.2368421052631578
 40
0.2368421052631578
 40
0.2368421052631578
 40
0.2368421052631578
 40
0.2499999999999999
 40
0.2499999999999999
 40
0.2499999999999999
 40
0.2499999999999999
 40
0.263157894736842
 40
0.263157894736842
 40
0.263157894736842
 40
0.263157894736842
 40
0.2763157894736841
 40
0.2763157894736841
 40
0.2763157894736841
 40
0.2763157894736841
 40
0.2894736842105262
 40
0.2894736842105262
 40
0.2894736842105262
 40
0.2894736842105262
 40
0.3026315789473683
 40
0.3026315789473683
 40
0.3026315789473683
 40
0.3026315789473683
 40
0.3157894736842103
 40
0.3157894736842103
 40
0.3157894736842103
 40
0.3157894736842103
 40
0.3289473684210524
 40
0.3289473684210524
 40
0.3289473684210524
 40
0.3289473684210524
 40
0.3421052631578945
 40
0.3421052631578945
 40
0.3421052631578945
 40
0.3421052631578945
 40
0.3552631578947366
 40
0.3552631578947366
 40
0.3552631578947366
 40
0.3552631578947366
 40
0.3684210526315787
 40
0.3684210526315787
 40
0.3684210526315787
 40
0.3684210526315787
 40
0.3815789473684208
 40
0.3815789473684208
 40
0.3815789473684208
 40
0.3815789473684208
 40
0.3947368421052629
 40
0.3947368421052629
 40
0.3947368421052629
 40
0.3947368421052629
 40
0.407894736842105
 40
0.407894736842105
 40
0.407894736842105
 40
0.407894736842105
 40
0.4210526315789471
 40
0.4210526315789471
 40
0.4210526315789471
 40
0.4210526315789471
 40
0.4342105263157892
 40
0.4342105263157892
 40
0.4342105263157892
 40
0.4342105263157892
 40
0.4473684210526312
 40
0.4473684210526312
 40
0.4473684210526312
 40
0.4473684210526312
 40
0.4605263157894733
 40
0.4605263157894733
 40
0.4605263157894733
 40
0.4605263157894733
 40
0.4736842105263154
 40
0.4736842105263154
 40
0.4736842105263154
 40
0.4736842105263154
 40
0.4868421052631575
 40
0.4868421052631575
 40
0.4868421052631575
 40
0.4868421052631575
 40
0.4999999999999996
 40
0.4999999999999996
 40
0.4999999999999996
 40
0.4999999999999996
 40
0.5131578947368417
 40
0.5131578947368417
 40
0.5131578947368417
 40
0.5131578947368417
 40
0.5263157894736838
 40
0.5263157894736838
 40
0.5263157894736838
 40
0.5263157894736838
 40
0.539473684210526
 40
0.539473684210526
 40
0.539473684210526
 40
0.539473684210526
 40
0.5526315789473681
 40
0.5526315789473681
 40
0.5526315789473681
 40
0.5526315789473681
 40
0.5657894736842103
 40
0.5657894736842103
 40
0.5657894736842103
 40
0.5657894736842103
 40
0.5789473684210524
 40
0.5789473684210524
 40
0.5789473684210524
 40
0.5789473684210524
 40
0.5921052631578946
 40
0.5921052631578946
 40
0.5921052631578946
 40
0.5921052631578946
 40
0.6052631578947367
 40
0.6052631578947367
 40
0.6052631578947367
 40
0.6052631578947367
 40
0.6184210526315789
 40
0.6184210526315789
 40
0.6184210526315789
 40
0.6184210526315789
 40
0.631578947368421
 40
0.631578947368421
 40
0.631578947368421
 40
0.631578947368421
 40
0.6447368421052632
 40
0.6447368421052632
 40
0.6447368421052632
 40
0.6447368421052632
 40
0.6578947368421053
 40
0.6578947368421053
 40
0.6578947368421053
 40
0.6578947368421053
 40
0.6710526315789475
 40
0.6710526315789475
 40
0.6710526315789475
 40
0.6710526315789475
 40
0.6842105263157896
 40
0.6842105263157896
 40
0.6842105263157896
 40
0.6842105263157896
 40
0.6973684210526317
 40
0.6973684210526317
 40
0.6973684210526317
 40
0.6973684210526317
 40
0.7105263157894739
 40
0.7105263157894739
 40
0.7105263157894739
 40
0.7105263157894739
 40
0.723684210526316
 40
0.723684210526316
 40
0.723684210526316
 40
0.723684210526316
 40
0.7368421052631582
 40
0.7368421052631582
 40
0.7368421052631582
 40
0.7368421052631582
 40
0.7500000000000003
 40
0.7500000000000003
 40
0.7500000000000003
 40
0.7500000000000003
 40
0.7631578947368425
 40
0.7631578947368425
 40
0.7631578947368425
 40
0.7631578947368425
 40
0.7763157894736846
 40
0.7763157894736846
 40
0.7763157894736846
 40
0.7763157894736846
 40
0.7894736842105268
 40
0.7894736842105268
 40
0.7894736842105268
 40
0.7894736842105268
 40
0.8026315789473689
 40
0.8026315789473689
 40
0.8026315789473689
 40
0.8026315789473689
 40
0.8157894736842111
 40
0.8157894736842111
 40
0.8157894736842111
 40
0.8157894736842111
 40
0.8289473684210532
 40
0.8289473684210532
 40
0.8289473684210532
 40
0.8289473684210532
 40
0.8421052631578954
 40
0.8421052631578954
 40
0.8421052631578954
 40
0.8421052631578954
 40
0.8552631578947375
 40
0.8552631578947375
 40
0.8552631578947375
 40
0.8552631578947375
 40
0.8684210526315796
 40
0.8684210526315796
 40
0.8684210526315796
 40
0.8684210526315796
 40
0.8815789473684218
 40
0.8815789473684218
 40
0.8815789473684218
 40
0.8815789473684218
 40
0.8947368421052639
 40
0.8947368421052639
 40
0.8947368421052639
 40
0.8947368421052639
 40
0.9078947368421061
 40
0.9078947368421061
 40
0.9078947368421061
 40
0.9078947368421061
 40
0.9210526315789482
 40
0.9210526315789482
 40
0.9210526315789482
 40
0.9210526315789482
 40
0.9342105263157904
 40
0.9342105263157904
 40
0.9342105263157904
 40
0.9342105263157904
 40
0.9473684210526325
 40
0.9473684210526325
 40
0.9473684210526325
 40
0.9473684210526325
 40
0.9605263157894747
 40
0.9605263157894747
 40
0.9605263157894747
 40
0.9605263157894747
 40
0.9736842105263168
 40
0.9736842105263168
 40
0.9736842105263168
 40
0.9736842105263168
 40
0.986842105263159
 40
0.986842105263159
 40
0.986842105263159
 40
0.986842105263159
 40
1.0
 40
1.0
 40
1.0
 40
1.0
 10
-0.85694
 20
3.12105
 30
0.0
 10
-0.85694
 20
3.12846
 30
0.0
 10
-0.85937
 20
3.13508
 30
0.0
 10
-0.86423
 20
3.14093
 30
0.0
 10
-0.86423
 20
3.14093
 30
0.0
 10
-0.86908
 20
3.14677
 30
0.0
 10
-0.8748
 20
3.15134
 30
0.0
 10
-0.88139
 20
3.15463
 30
0.0
 10
-0.88139
 20
3.15463
 30
0.0
 10
-0.87612
 20
3.15727
 30
0.0
 10
-0.87155
 20
3.16101
 30
0.0
 10
-0.86768
 20
3.16587
 30
0.0
 10
-0.86768
 20
3.16587
 30
0.0
 10
-0.86382
 20
3.17072
 30
0.0
 10
-0.86188
 20
3.1762
 30
0.0
 10
-0.86188
 20
3.18229
 30
0.0
 10
-0.86188
 20
3.18229
 30
0.0
 10
-0.86188
 20
3.18311
 30
0.0
 10
-0.86196
 20
3.18389
 30
0.0
 10
-0.86213
 20
3.18464
 30
0.0
 10
-0.86213
 20
3.18464
 30
0.0
 10
-0.86229
 20
3.18538
 30
0.0
 10
-0.86237
 20
3.18616
 30
0.0
 10
-0.86237
 20
3.18698
 30
0.0
 10
-0.86237
 20
3.18698
 30
0.0
 10
-0.86336
 20
3.19488
 30
0.0
 10
-0.86591
 20
3.20172
 30
0.0
 10
-0.87003
 20
3.20748
 30
0.0
 10
-0.87003
 20
3.20748
 30
0.0
 10
-0.87415
 20
3.21324
 30
0.0
 10
-0.87921
 20
3.21801
 30
0.0
 10
-0.88522
 20
3.2218
 30
0.0
 10
-0.88522
 20
3.2218
 30
0.0
 10
-0.89123
 20
3.22559
 30
0.0
 10
-0.89781
 20
3.22839
 30
0.0
 10
-0.90497
 20
3.2302
 30
0.0
 10
-0.90497
 20
3.2302
 30
0.0
 10
-0.91213
 20
3.23201
 30
0.0
 10
-0.91917
 20
3.23291
 30
0.0
 10
-0.92609
 20
3.23291
 30
0.0
 10
-0.92609
 20
3.23291
 30
0.0
 10
-0.92724
 20
3.23291
 30
0.0
 10
-0.92839
 20
3.23291
 30
0.0
 10
-0.92954
 20
3.23291
 30
0.0
 10
-0.92954
 20
3.23291
 30
0.0
 10
-0.93053
 20
3.23291
 30
0.0
 10
-0.9316
 20
3.23283
 30
0.0
 10
-0.93275
 20
3.23267
 30
0.0
 10
-0.93275
 20
3.23267
 30
0.0
 10
-0.93374
 20
3.2325
 30
0.0
 10
-0.93473
 20
3.23238
 30
0.0
 10
-0.93572
 20
3.2323
 30
0.0
 10
-0.93572
 20
3.2323
 30
0.0
 10
-0.9367
 20
3.23221
 30
0.0
 10
-0.93769
 20
3.23217
 30
0.0
 10
-0.93868
 20
3.23217
 30
0.0
 10
-0.93868
 20
3.23217
 30
0.0
 10
-0.93934
 20
3.23217
 30
0.0
 10
-0.93967
 20
3.23184
 30
0.0
 10
-0.93967
 20
3.23118
 30
0.0
 10
-0.93967
 20
3.23118
 30
0.0
 10
-0.93983
 20
3.22871
 30
0.0
 10
-0.93991
 20
3.22625
 30
0.0
 10
-0.93991
 20
3.22378
 30
0.0
 10
-0.93991
 20
3.22378
 30
0.0
 10
-0.93991
 20
3.22131
 30
0.0
 10
-0.93991
 20
3.21884
 30
0.0
 10
-0.93991
 20
3.21637
 30
0.0
 10
-0.93991
 20
3.21637
 30
0.0
 10
-0.93991
 20
3.21373
 30
0.0
 10
-0.93991
 20
3.21118
 30
0.0
 10
-0.93991
 20
3.20871
 30
0.0
 10
-0.93991
 20
3.20871
 30
0.0
 10
-0.93991
 20
3.20624
 30
0.0
 10
-0.94
 20
3.20369
 30
0.0
 10
-0.94016
 20
3.20106
 30
0.0
 10
-0.94016
 20
3.20106
 30
0.0
 10
-0.94016
 20
3.2004
 30
0.0
 10
-0.93983
 20
3.20007
 30
0.0
 10
-0.93917
 20
3.20007
 30
0.0
 10
-0.93917
 20
3.20007
 30
0.0
 10
-0.93917
 20
3.20007
 30
0.0
 10
-0.93621
 20
3.20007
 30
0.0
 10
-0.93621
 20
3.20007
 30
0.0
 10
-0.93621
 20
3.20007
 30
0.0
 10
-0.9344
 20
3.20056
 30
0.0
 10
-0.93308
 20
3.20085
 30
0.0
 10
-0.93226
 20
3.20093
 30
0.0
 10
-0.93226
 20
3.20093
 30
0.0
 10
-0.93144
 20
3.20102
 30
0.0
 10
-0.93069
 20
3.20106
 30
0.0
 10
-0.93004
 20
3.20106
 30
0.0
 10
-0.93004
 20
3.20106
 30
0.0
 10
-0.93004
 20
3.20106
 30
0.0
 10
-0.92757
 20
3.20106
 30
0.0
 10
-0.92757
 20
3.20106
 30
0.0
 10
-0.92757
 20
3.20106
 30
0.0
 10
-0.9246
 20
3.20106
 30
0.0
 10
-0.92148
 20
3.20081
 30
0.0
 10
-0.91818
 20
3.20032
 30
0.0
 10
-0.91818
 20
3.20032
 30
0.0
 10
-0.91489
 20
3.19982
 30
0.0
 10
-0.91189
 20
3.19896
 30
0.0
 10
-0.90917
 20
3.19772
 30
0.0
 10
-0.90917
 20
3.19772
 30
0.0
 10
-0.90645
 20
3.19649
 30
0.0
 10
-0.90415
 20
3.19472
 30
0.0
 10
-0.90226
 20
3.19241
 30
0.0
 10
-0.90226
 20
3.19241
 30
0.0
 10
-0.90036
 20
3.19011
 30
0.0
 10
-0.89933
 20
3.18723
 30
0.0
 10
-0.89917
 20
3.18377
 30
0.0
 10
-0.89917
 20
3.18377
 30
0.0
 10
-0.89933
 20
3.18048
 30
0.0
 10
-0.90036
 20
3.1778
 30
0.0
 10
-0.90226
 20
3.17575
 30
0.0
 10
-0.90226
 20
3.17575
 30
0.0
 10
-0.90415
 20
3.17369
 30
0.0
 10
-0.90645
 20
3.17212
 30
0.0
 10
-0.90917
 20
3.17105
 30
0.0
 10
-0.90917
 20
3.17105
 30
0.0
 10
-0.91189
 20
3.16998
 30
0.0
 10
-0.91485
 20
3.16928
 30
0.0
 10
-0.91806
 20
3.16896
 30
0.0
 10
-0.91806
 20
3.16896
 30
0.0
 10
-0.92127
 20
3.16863
 30
0.0
 10
-0.92427
 20
3.16846
 30
0.0
 10
-0.92707
 20
3.16846
 30
0.0
 10
-0.92707
 20
3.16846
 30
0.0
 10
-0.92707
 20
3.16846
 30
0.0
 10
-0.93078
 20
3.16846
 30
0.0
 10
-0.93078
 20
3.16846
 30
0.0
 10
-0.93078
 20
3.16846
 30
0.0
 10
-0.93144
 20
3.16846
 30
0.0
 10
-0.93209
 20
3.1685
 30
0.0
 10
-0.93275
 20
3.16858
 30
0.0
 10
-0.93275
 20
3.16858
 30
0.0
 10
-0.93341
 20
3.16867
 30
0.0
 10
-0.93415
 20
3.16879
 30
0.0
 10
-0.93498
 20
3.16896
 30
0.0
 10
-0.93498
 20
3.16896
 30
0.0
 10
-0.9358
 20
3.16912
 30
0.0
 10
-0.93658
 20
3.16924
 30
0.0
 10
-0.93732
 20
3.16933
 30
0.0
 10
-0.93732
 20
3.16933
 30
0.0
 10
-0.93806
 20
3.16941
 30
0.0
 10
-0.93893
 20
3.16945
 30
0.0
 10
-0.93991
 20
3.16945
 30
0.0
 10
-0.93991
 20
3.16945
 30
0.0
 10
-0.94057
 20
3.16945
 30
0.0
 10
-0.9409
 20
3.16912
 30
0.0
 10
-0.9409
 20
3.16846
 30
0.0
 10
-0.9409
 20
3.16846
 30
0.0
 10
-0.9409
 20
3.16846
 30
0.0
 10
-0.9409
 20
3.1371
 30
0.0
 10
-0.9409
 20
3.1371
 30
0.0
 10
-0.9409
 20
3.1371
 30
0.0
 10
-0.9409
 20
3.13644
 30
0.0
 10
-0.94057
 20
3.13611
 30
0.0
 10
-0.93991
 20
3.13611
 30
0.0
 10
-0.93991
 20
3.13611
 30
0.0
 10
-0.93893
 20
3.13611
 30
0.0
 10
-0.93794
 20
3.13615
 30
0.0
 10
-0.93695
 20
3.13624
 30
0.0
 10
-0.93695
 20
3.13624
 30
0.0
 10
-0.93596
 20
3.13632
 30
0.0
 10
-0.93506
 20
3.13644
 30
0.0
 10
-0.93423
 20
3.13661
 30
0.0
 10
-0.93423
 20
3.13661
 30
0.0
 10
-0.93341
 20
3.13677
 30
0.0
 10
-0.93226
 20
3.13685
 30
0.0
 10
-0.93078
 20
3.13685
 30
0.0
 10
-0.93078
 20
3.13685
 30
0.0
 10
-0.93078
 20
3.13685
 30
0.0
 10
-0.92584
 20
3.13685
 30
0.0
 10
-0.92584
 20
3.13685
 30
0.0
 10
-0.92584
 20
3.13685
 30
0.0
 10
-0.92271
 20
3.13685
 30
0.0
 10
-0.91942
 20
3.13661
 30
0.0
 10
-0.91596
 20
3.13611
 30
0.0
 10
-0.91596
 20
3.13611
 30
0.0
 10
-0.9125
 20
3.13562
 30
0.0
 10
-0.90929
 20
3.13467
 30
0.0
 10
-0.90633
 20
3.13327
 30
0.0
 10
-0.90633
 20
3.13327
 30
0.0
 10
-0.90337
 20
3.13187
 30
0.0
 10
-0.90094
 20
3.12998
 30
0.0
 10
-0.89905
 20
3.12759
 30
0.0
 10
-0.89905
 20
3.12759
 30
0.0
 10
-0.89715
 20
3.12521
 30
0.0
 10
-0.89621
 20
3.12212
 30
0.0
 10
-0.89621
 20
3.11833
 30
0.0
 10
-0.89621
 20
3.11833
 30
0.0
 10
-0.89621
 20
3.11833
 30
0.0
 10
-0.89621
 20
3.1171
 30
0.0
 10
-0.89621
 20
3.1171
 30
0.0
 10
-0.89621
 20
3.1171
 30
0.0
 10
-0.89621
 20
3.11315
 30
0.0
 10
-0.89715
 20
3.10981
 30
0.0
 10
-0.89905
 20
3.1071
 30
0.0
 10
-0.89905
 20
3.1071
 30
0.0
 10
-0.90094
 20
3.10438
 30
0.0
 10
-0.90337
 20
3.10216
 30
0.0
 10
-0.90633
 20
3.10043
 30
0.0
 10
-0.90633
 20
3.10043
 30
0.0
 10
-0.90929
 20
3.0987
 30
0.0
 10
-0.91254
 20
3.09747
 30
0.0
 10
-0.91608
 20
3.09673
 30
0.0
 10
-0.91608
 20
3.09673
 30
0.0
 10
-0.91962
 20
3.09598
 30
0.0
 10
-0.92312
 20
3.09561
 30
0.0
 10
-0.92658
 20
3.09561
 30
0.0
 10
-0.92658
 20
3.09561
 30
0.0
 10
-0.9274
 20
3.09561
 30
0.0
 10
-0.92814
 20
3.09561
 30
0.0
 10
-0.9288
 20
3.09561
 30
0.0
 10
-0.9288
 20
3.09561
 30
0.0
 10
-0.92946
 20
3.09561
 30
0.0
 10
-0.9302
 20
3.0957
 30
0.0
 10
-0.93102
 20
3.09586
 30
0.0
 10
-0.93102
 20
3.09586
 30
0.0
 10
-0.93102
 20
3.09586
 30
0.0
 10
-0.93201
 20
3.09586
 30
0.0
 10
-0.93201
 20
3.09586
 30
0.0
 10
-0.93201
 20
3.09586
 30
0.0
 10
-0.93234
 20
3.09586
 30
0.0
 10
-0.93333
 20
3.09603
 30
0.0
 10
-0.93498
 20
3.09635
 30
0.0
 10
-0.93498
 20
3.09635
 30
0.0
 10
-0.93563
 20
3.09652
 30
0.0
 10
-0.9367
 20
3.0966
 30
0.0
 10
-0.93819
 20
3.0966
 30
0.0
 10
-0.93819
 20
3.0966
 30
0.0
 10
-0.93819
 20
3.0966
 30
0.0
 10
-0.93942
 20
3.0966
 30
0.0
 10
-0.93942
 20
3.0966
 30
0.0
 10
-0.93942
 20
3.0966
 30
0.0
 10
-0.94008
 20
3.0966
 30
0.0
 10
-0.94041
 20
3.09627
 30
0.0
 10
-0.94041
 20
3.09561
 30
0.0
 10
-0.94041
 20
3.09561
 30
0.0
 10
-0.94024
 20
3.09331
 30
0.0
 10
-0.94016
 20
3.09084
 30
0.0
 10
-0.94016
 20
3.08821
 30
0.0
 10
-0.94016
 20
3.08821
 30
0.0
 10
-0.94016
 20
3.08574
 30
0.0
 10
-0.94008
 20
3.08327
 30
0.0
 10
-0.93991
 20
3.0808
 30
0.0
 10
-0.93991
 20
3.0808
 30
0.0
 10
-0.93975
 20
3.07833
 30
0.0
 10
-0.93967
 20
3.07586
 30
0.0
 10
-0.93967
 20
3.07339
 30
0.0
 10
-0.93967
 20
3.07339
 30
0.0
 10
-0.93967
 20
3.07108
 30
0.0
 10
-0.93967
 20
3.06862
 30
0.0
 10
-0.93967
 20
3.06598
 30
0.0
 10
-0.93967
 20
3.06598
 30
0.0
 10
-0.93967
 20
3.06532
 30
0.0
 10
-0.93934
 20
3.06499
 30
0.0
 10
-0.93868
 20
3.06499
 30
0.0
 10
-0.93868
 20
3.06499
 30
0.0
 10
-0.93654
 20
3.06483
 30
0.0
 10
-0.9344
 20
3.06475
 30
0.0
 10
-0.93226
 20
3.06475
 30
0.0
 10
-0.93226
 20
3.06475
 30
0.0
 10
-0.93012
 20
3.06475
 30
0.0
 10
-0.92798
 20
3.06475
 30
0.0
 10
-0.92584
 20
3.06475
 30
0.0
 10
-0.92584
 20
3.06475
 30
0.0
 10
-0.92502
 20
3.06475
 30
0.0
 10
-0.92436
 20
3.06471
 30
0.0
 10
-0.92386
 20
3.06462
 30
0.0
 10
-0.92386
 20
3.06462
 30
0.0
 10
-0.92337
 20
3.06454
 30
0.0
 10
-0.92271
 20
3.0645
 30
0.0
 10
-0.92189
 20
3.0645
 30
0.0
 10
-0.92189
 20
3.0645
 30
0.0
 10
-0.91201
 20
3.0645
 30
0.0
 10
-0.90242
 20
3.06652
 30
0.0
 10
-0.89312
 20
3.07055
 30
0.0
 10
-0.89312
 20
3.07055
 30
0.0
 10
-0.88382
 20
3.07458
 30
0.0
 10
-0.87604
 20
3.08055
 30
0.0
 10
-0.86978
 20
3.08845
 30
0.0
 10
-0.86978
 20
3.08845
 30
0.0
 10
-0.86666
 20
3.0924
 30
0.0
 10
-0.8639
 20
3.09677
 30
0.0
 10
-0.86151
 20
3.10154
 30
0.0
 10
-0.86151
 20
3.10154
 30
0.0
 10
-0.85912
 20
3.10631
 30
0.0
 10
-0.85768
 20
3.11134
 30
0.0
 10
-0.85719
 20
3.1166
 30
0.0
 10
-0.85719
 20
3.1166
 30
0.0
 10
-0.85719
 20
3.1166
 30
0.0
 10
-0.85719
 20
3.11636
 30
0.0
 10
-0.85719
 20
3.11636
 30
0.0
 10
-0.85719
 20
3.11636
 30
0.0
 10
-0.85702
 20
3.11718
 30
0.0
 10
-0.85694
 20
3.11792
 30
0.0
 10
-0.85694
 20
3.11858
 30
0.0
 10
-0.85694
 20
3.11858
 30
0.0
 10
-0.85694
 20
3.1194
 30
0.0
 10
-0.85694
 20
3.12023
 30
0.0
 10
-0.85694
 20
3.12105
 30
0.0
  0
SPLINE
  5
76
330
1F
100
AcDbEntity
  8
Warstwa 1
 62
   250
100
AcDbSpline
210
0.0
220
0.0
230
1.0
 70
    11
 71
     3
 72
    60
 73
    56
 74
     0
 42
0.0000000001
 43
0.0000000001
 40
0.0
 40
0.0
 40
0.0
 40
0.0
 40
0.0714285714285714
 40
0.0714285714285714
 40
0.0714285714285714
 40
0.0714285714285714
 40
0.1428571428571428
 40
0.1428571428571428
 40
0.1428571428571428
 40
0.1428571428571428
 40
0.2142857142857143
 40
0.2142857142857143
 40
0.2142857142857143
 40
0.2142857142857143
 40
0.2857142857142857
 40
0.2857142857142857
 40
0.2857142857142857
 40
0.2857142857142857
 40
0.3571428571428571
 40
0.3571428571428571
 40
0.3571428571428571
 40
0.3571428571428571
 40
0.4285714285714285
 40
0.4285714285714285
 40
0.4285714285714285
 40
0.4285714285714285
 40
0.4999999999999999
 40
0.4999999999999999
 40
0.4999999999999999
 40
0.4999999999999999
 40
0.5714285714285713
 40
0.5714285714285713
 40
0.5714285714285713
 40
0.5714285714285713
 40
0.6428571428571427
 40
0.6428571428571427
 40
0.6428571428571427
 40
0.6428571428571427
 40
0.7142857142857141
 40
0.7142857142857141
 40
0.7142857142857141
 40
0.7142857142857141
 40
0.7857142857142855
 40
0.7857142857142855
 40
0.7857142857142855
 40
0.7857142857142855
 40
0.8571428571428569
 40
0.8571428571428569
 40
0.8571428571428569
 40
0.8571428571428569
 40
0.9285714285714283
 40
0.9285714285714283
 40
0.9285714285714283
 40
0.9285714285714283
 40
1.0
 40
1.0
 40
1.0
 40
1.0
 10
-0.95374
 20
3.2297
 30
0.0
 10
-0.95374
 20
3.23036
 30
0.0
 10
-0.95407
 20
3.23069
 30
0.0
 10
-0.95473
 20
3.23069
 30
0.0
 10
-0.95473
 20
3.23069
 30
0.0
 10
-0.96625
 20
3.22937
 30
0.0
 10
-0.97712
 20
3.22715
 30
0.0
 10
-0.98733
 20
3.22402
 30
0.0
 10
-0.98733
 20
3.22402
 30
0.0
 10
-0.98733
 20
3.22402
 30
0.0
 10
-0.98807
 20
3.22328
 30
0.0
 10
-0.98807
 20
3.22328
 30
0.0
 10
-0.98807
 20
3.22328
 30
0.0
 10
-0.99383
 20
3.19793
 30
0.0
 10
-0.99671
 20
3.17233
 30
0.0
 10
-0.99671
 20
3.14648
 30
0.0
 10
-0.99671
 20
3.14648
 30
0.0
 10
-0.99671
 20
3.13414
 30
0.0
 10
-0.99605
 20
3.122
 30
0.0
 10
-0.99473
 20
3.11006
 30
0.0
 10
-0.99473
 20
3.11006
 30
0.0
 10
-0.99342
 20
3.09812
 30
0.0
 10
-0.99152
 20
3.08623
 30
0.0
 10
-0.98906
 20
3.07438
 30
0.0
 10
-0.98906
 20
3.07438
 30
0.0
 10
-0.98906
 20
3.07388
 30
0.0
 10
-0.98881
 20
3.07364
 30
0.0
 10
-0.98831
 20
3.07364
 30
0.0
 10
-0.98831
 20
3.07364
 30
0.0
 10
-0.98288
 20
3.07215
 30
0.0
 10
-0.97741
 20
3.0708
 30
0.0
 10
-0.97189
 20
3.06956
 30
0.0
 10
-0.97189
 20
3.06956
 30
0.0
 10
-0.96638
 20
3.06833
 30
0.0
 10
-0.96082
 20
3.0673
 30
0.0
 10
-0.95522
 20
3.06647
 30
0.0
 10
-0.95522
 20
3.06647
 30
0.0
 10
-0.9544
 20
3.06647
 30
0.0
 10
-0.95399
 20
3.0668
 30
0.0
 10
-0.95399
 20
3.06746
 30
0.0
 10
-0.95399
 20
3.06746
 30
0.0
 10
-0.95531
 20
3.08096
 30
0.0
 10
-0.95621
 20
3.09446
 30
0.0
 10
-0.95671
 20
3.10796
 30
0.0
 10
-0.95671
 20
3.10796
 30
0.0
 10
-0.9572
 20
3.12146
 30
0.0
 10
-0.95745
 20
3.13504
 30
0.0
 10
-0.95745
 20
3.14871
 30
0.0
 10
-0.95745
 20
3.14871
 30
0.0
 10
-0.95745
 20
3.16237
 30
0.0
 10
-0.95716
 20
3.17587
 30
0.0
 10
-0.95658
 20
3.1892
 30
0.0
 10
-0.95658
 20
3.1892
 30
0.0
 10
-0.95601
 20
3.20254
 30
0.0
 10
-0.95506
 20
3.21604
 30
0.0
 10
-0.95374
 20
3.2297
 30
0.0
  0
SPLINE
  5
77
330
1F
100
AcDbEntity
  8
Warstwa 1
 62
   250
100
AcDbSpline
210
0.0
220
0.0
230
1.0
 70
    11
 71
     3
 72
   112
 73
   108
 74
     0
 42
0.0000000001
 43
0.0000000001
 40
0.0
 40
0.0
 40
0.0
 40
0.0
 40
0.037037037037037
 40
0.037037037037037
 40
0.037037037037037
 40
0.037037037037037
 40
0.0740740740740741
 40
0.0740740740740741
 40
0.0740740740740741
 40
0.0740740740740741
 40
0.1111111111111111
 40
0.1111111111111111
 40
0.1111111111111111
 40
0.1111111111111111
 40
0.1481481481481481
 40
0.1481481481481481
 40
0.1481481481481481
 40
0.1481481481481481
 40
0.1851851851851852
 40
0.1851851851851852
 40
0.1851851851851852
 40
0.1851851851851852
 40
0.2222222222222222
 40
0.2222222222222222
 40
0.2222222222222222
 40
0.2222222222222222
 40
0.2592592592592592
 40
0.2592592592592592
 40
0.2592592592592592
 40
0.2592592592592592
 40
0.2962962962962963
 40
0.2962962962962963
 40
0.2962962962962963
 40
0.2962962962962963
 40
0.3333333333333333
 40
0.3333333333333333
 40
0.3333333333333333
 40
0.3333333333333333
 40
0.3703703703703703
 40
0.3703703703703703
 40
0.3703703703703703
 40
0.3703703703703703
 40
0.4074074074074074
 40
0.4074074074074074
 40
0.4074074074074074
 40
0.4074074074074074
 40
0.4444444444444444
 40
0.4444444444444444
 40
0.4444444444444444
 40
0.4444444444444444
 40
0.4814814814814815
 40
0.4814814814814815
 40
0.4814814814814815
 40
0.4814814814814815
 40
0.5185185185185185
 40
0.5185185185185185
 40
0.5185185185185185
 40
0.5185185185185185
 40
0.5555555555555556
 40
0.5555555555555556
 40
0.5555555555555556
 40
0.5555555555555556
 40
0.5925925925925926
 40
0.5925925925925926
 40
0.5925925925925926
 40
0.5925925925925926
 40
0.6296296296296295
 40
0.6296296296296295
 40
0.6296296296296295
 40
0.6296296296296295
 40
0.6666666666666665
 40
0.6666666666666665
 40
0.6666666666666665
 40
0.6666666666666665
 40
0.7037037037037035
 40
0.7037037037037035
 40
0.7037037037037035
 40
0.7037037037037035
 40
0.7407407407407405
 40
0.7407407407407405
 40
0.7407407407407405
 40
0.7407407407407405
 40
0.7777777777777775
 40
0.7777777777777775
 40
0.7777777777777775
 40
0.7777777777777775
 40
0.8148148148148144
 40
0.8148148148148144
 40
0.8148148148148144
 40
0.8148148148148144
 40
0.8518518518518514
 40
0.8518518518518514
 40
0.8518518518518514
 40
0.8518518518518514
 40
0.8888888888888884
 40
0.8888888888888884
 40
0.8888888888888884
 40
0.8888888888888884
 40
0.9259259259259254
 40
0.9259259259259254
 40
0.9259259259259254
 40
0.9259259259259254
 40
0.9629629629629624
 40
0.9629629629629624
 40
0.9629629629629624
 40
0.9629629629629624
 40
1.0
 40
1.0
 40
1.0
 40
1.0
 10
-0.5897
 20
3.14426
 30
0.0
 10
-0.5897
 20
3.15743
 30
0.0
 10
-0.5904
 20
3.17044
 30
0.0
 10
-0.5918
 20
3.18328
 30
0.0
 10
-0.5918
 20
3.18328
 30
0.0
 10
-0.5932
 20
3.19612
 30
0.0
 10
-0.59522
 20
3.20888
 30
0.0
 10
-0.59785
 20
3.22155
 30
0.0
 10
-0.59785
 20
3.22155
 30
0.0
 10
-0.59785
 20
3.22205
 30
0.0
 10
-0.5981
 20
3.22229
 30
0.0
 10
-0.59859
 20
3.22229
 30
0.0
 10
-0.59859
 20
3.22229
 30
0.0
 10
-0.60386
 20
3.2241
 30
0.0
 10
-0.60925
 20
3.22555
 30
0.0
 10
-0.61477
 20
3.22662
 30
0.0
 10
-0.61477
 20
3.22662
 30
0.0
 10
-0.62028
 20
3.22769
 30
0.0
 10
-0.62584
 20
3.22863
 30
0.0
 10
-0.63144
 20
3.22946
 30
0.0
 10
-0.63144
 20
3.22946
 30
0.0
 10
-0.63226
 20
3.22946
 30
0.0
 10
-0.63267
 20
3.22913
 30
0.0
 10
-0.63267
 20
3.22847
 30
0.0
 10
-0.63267
 20
3.22847
 30
0.0
 10
-0.63152
 20
3.21431
 30
0.0
 10
-0.63065
 20
3.20023
 30
0.0
 10
-0.63008
 20
3.18624
 30
0.0
 10
-0.63008
 20
3.18624
 30
0.0
 10
-0.6295
 20
3.17225
 30
0.0
 10
-0.62921
 20
3.15817
 30
0.0
 10
-0.62921
 20
3.14401
 30
0.0
 10
-0.62921
 20
3.14401
 30
0.0
 10
-0.62921
 20
3.14401
 30
0.0
 10
-0.62921
 20
3.12698
 30
0.0
 10
-0.62921
 20
3.12698
 30
0.0
 10
-0.62921
 20
3.12698
 30
0.0
 10
-0.62921
 20
3.12368
 30
0.0
 10
-0.62925
 20
3.12043
 30
0.0
 10
-0.62934
 20
3.11722
 30
0.0
 10
-0.62934
 20
3.11722
 30
0.0
 10
-0.62942
 20
3.11401
 30
0.0
 10
-0.62979
 20
3.11076
 30
0.0
 10
-0.63045
 20
3.10747
 30
0.0
 10
-0.63045
 20
3.10747
 30
0.0
 10
-0.63209
 20
3.10236
 30
0.0
 10
-0.6346
 20
3.09882
 30
0.0
 10
-0.63798
 20
3.09685
 30
0.0
 10
-0.63798
 20
3.09685
 30
0.0
 10
-0.64135
 20
3.09487
 30
0.0
 10
-0.64494
 20
3.09389
 30
0.0
 10
-0.64872
 20
3.09389
 30
0.0
 10
-0.64872
 20
3.09389
 30
0.0
 10
-0.64872
 20
3.09389
 30
0.0
 10
-0.64946
 20
3.09389
 30
0.0
 10
-0.64946
 20
3.09389
 30
0.0
 10
-0.64946
 20
3.09389
 30
0.0
 10
-0.65012
 20
3.09389
 30
0.0
 10
-0.65045
 20
3.09364
 30
0.0
 10
-0.65045
 20
3.09314
 30
0.0
 10
-0.65045
 20
3.09314
 30
0.0
 10
-0.65045
 20
3.09314
 30
0.0
 10
-0.65045
 20
3.0929
 30
0.0
 10
-0.65045
 20
3.0929
 30
0.0
 10
-0.65045
 20
3.0929
 30
0.0
 10
-0.65045
 20
3.08763
 30
0.0
 10
-0.65053
 20
3.08253
 30
0.0
 10
-0.6507
 20
3.07759
 30
0.0
 10
-0.6507
 20
3.07759
 30
0.0
 10
-0.65086
 20
3.07265
 30
0.0
 10
-0.65111
 20
3.06754
 30
0.0
 10
-0.65144
 20
3.06228
 30
0.0
 10
-0.65144
 20
3.06228
 30
0.0
 10
-0.65144
 20
3.06162
 30
0.0
 10
-0.65111
 20
3.06129
 30
0.0
 10
-0.65045
 20
3.06129
 30
0.0
 10
-0.65045
 20
3.06129
 30
0.0
 10
-0.65045
 20
3.06129
 30
0.0
 10
-0.64798
 20
3.06129
 30
0.0
 10
-0.64798
 20
3.06129
 30
0.0
 10
-0.64798
 20
3.06129
 30
0.0
 10
-0.63958
 20
3.06129
 30
0.0
 10
-0.63181
 20
3.0631
 30
0.0
 10
-0.62464
 20
3.06672
 30
0.0
 10
-0.62464
 20
3.06672
 30
0.0
 10
-0.61748
 20
3.07034
 30
0.0
 10
-0.61135
 20
3.07516
 30
0.0
 10
-0.60625
 20
3.08117
 30
0.0
 10
-0.60625
 20
3.08117
 30
0.0
 10
-0.60114
 20
3.08718
 30
0.0
 10
-0.59715
 20
3.09405
 30
0.0
 10
-0.59427
 20
3.10179
 30
0.0
 10
-0.59427
 20
3.10179
 30
0.0
 10
-0.59139
 20
3.10952
 30
0.0
 10
-0.58995
 20
3.11743
 30
0.0
 10
-0.58995
 20
3.12549
 30
0.0
 10
-0.58995
 20
3.12549
 30
0.0
 10
-0.58995
 20
3.12549
 30
0.0
 10
-0.58995
 20
3.1292
 30
0.0
 10
-0.58995
 20
3.1292
 30
0.0
 10
-0.58995
 20
3.1292
 30
0.0
 10
-0.58995
 20
3.13183
 30
0.0
 10
-0.58991
 20
3.13434
 30
0.0
 10
-0.58983
 20
3.13673
 30
0.0
 10
-0.58983
 20
3.13673
 30
0.0
 10
-0.58974
 20
3.13912
 30
0.0
 10
-0.5897
 20
3.14163
 30
0.0
 10
-0.5897
 20
3.14426
 30
0.0
  0
SPLINE
  5
78
330
1F
100
AcDbEntity
  8
Warstwa 1
 62
   250
100
AcDbSpline
210
0.0
220
0.0
230
1.0
 70
    11
 71
     3
 72
   116
 73
   112
 74
     0
 42
0.0000000001
 43
0.0000000001
 40
0.0
 40
0.0
 40
0.0
 40
0.0
 40
0.0357142857142857
 40
0.0357142857142857
 40
0.0357142857142857
 40
0.0357142857142857
 40
0.0714285714285714
 40
0.0714285714285714
 40
0.0714285714285714
 40
0.0714285714285714
 40
0.1071428571428571
 40
0.1071428571428571
 40
0.1071428571428571
 40
0.1071428571428571
 40
0.1428571428571428
 40
0.1428571428571428
 40
0.1428571428571428
 40
0.1428571428571428
 40
0.1785714285714285
 40
0.1785714285714285
 40
0.1785714285714285
 40
0.1785714285714285
 40
0.2142857142857142
 40
0.2142857142857142
 40
0.2142857142857142
 40
0.2142857142857142
 40
0.2499999999999999
 40
0.2499999999999999
 40
0.2499999999999999
 40
0.2499999999999999
 40
0.2857142857142856
 40
0.2857142857142856
 40
0.2857142857142856
 40
0.2857142857142856
 40
0.3214285714285713
 40
0.3214285714285713
 40
0.3214285714285713
 40
0.3214285714285713
 40
0.357142857142857
 40
0.357142857142857
 40
0.357142857142857
 40
0.357142857142857
 40
0.3928571428571427
 40
0.3928571428571427
 40
0.3928571428571427
 40
0.3928571428571427
 40
0.4285714285714284
 40
0.4285714285714284
 40
0.4285714285714284
 40
0.4285714285714284
 40
0.4642857142857141
 40
0.4642857142857141
 40
0.4642857142857141
 40
0.4642857142857141
 40
0.4999999999999998
 40
0.4999999999999998
 40
0.4999999999999998
 40
0.4999999999999998
 40
0.5357142857142856
 40
0.5357142857142856
 40
0.5357142857142856
 40
0.5357142857142856
 40
0.5714285714285713
 40
0.5714285714285713
 40
0.5714285714285713
 40
0.5714285714285713
 40
0.607142857142857
 40
0.607142857142857
 40
0.607142857142857
 40
0.607142857142857
 40
0.6428571428571427
 40
0.6428571428571427
 40
0.6428571428571427
 40
0.6428571428571427
 40
0.6785714285714284
 40
0.6785714285714284
 40
0.6785714285714284
 40
0.6785714285714284
 40
0.7142857142857141
 40
0.7142857142857141
 40
0.7142857142857141
 40
0.7142857142857141
 40
0.7499999999999998
 40
0.7499999999999998
 40
0.7499999999999998
 40
0.7499999999999998
 40
0.7857142857142855
 40
0.7857142857142855
 40
0.7857142857142855
 40
0.7857142857142855
 40
0.8214285714285712
 40
0.8214285714285712
 40
0.8214285714285712
 40
0.8214285714285712
 40
0.8571428571428569
 40
0.8571428571428569
 40
0.8571428571428569
 40
0.8571428571428569
 40
0.8928571428571426
 40
0.8928571428571426
 40
0.8928571428571426
 40
0.8928571428571426
 40
0.9285714285714283
 40
0.9285714285714283
 40
0.9285714285714283
 40
0.9285714285714283
 40
0.964285714285714
 40
0.964285714285714
 40
0.964285714285714
 40
0.964285714285714
 40
1.0
 40
1.0
 40
1.0
 40
1.0
 10
-0.6665
 20
3.06203
 30
0.0
 10
-0.6665
 20
3.06466
 30
0.0
 10
-0.6665
 20
3.06722
 30
0.0
 10
-0.6665
 20
3.06969
 30
0.0
 10
-0.6665
 20
3.06969
 30
0.0
 10
-0.6665
 20
3.07232
 30
0.0
 10
-0.66658
 20
3.07487
 30
0.0
 10
-0.66675
 20
3.07734
 30
0.0
 10
-0.66675
 20
3.07734
 30
0.0
 10
-0.66691
 20
3.07997
 30
0.0
 10
-0.66704
 20
3.08253
 30
0.0
 10
-0.66712
 20
3.085
 30
0.0
 10
-0.66712
 20
3.085
 30
0.0
 10
-0.6672
 20
3.08746
 30
0.0
 10
-0.66724
 20
3.09002
 30
0.0
 10
-0.66724
 20
3.09265
 30
0.0
 10
-0.66724
 20
3.09265
 30
0.0
 10
-0.66724
 20
3.09331
 30
0.0
 10
-0.66757
 20
3.09364
 30
0.0
 10
-0.66823
 20
3.09364
 30
0.0
 10
-0.66823
 20
3.09364
 30
0.0
 10
-0.67119
 20
3.09397
 30
0.0
 10
-0.67416
 20
3.09463
 30
0.0
 10
-0.67712
 20
3.09561
 30
0.0
 10
-0.67712
 20
3.09561
 30
0.0
 10
-0.68008
 20
3.0966
 30
0.0
 10
-0.68255
 20
3.09841
 30
0.0
 10
-0.68453
 20
3.10105
 30
0.0
 10
-0.68453
 20
3.10105
 30
0.0
 10
-0.68453
 20
3.10105
 30
0.0
 10
-0.68428
 20
3.10105
 30
0.0
 10
-0.68428
 20
3.10105
 30
0.0
 10
-0.68428
 20
3.10105
 30
0.0
 10
-0.68659
 20
3.10582
 30
0.0
 10
-0.68794
 20
3.11014
 30
0.0
 10
-0.68836
 20
3.11401
 30
0.0
 10
-0.68836
 20
3.11401
 30
0.0
 10
-0.68877
 20
3.11788
 30
0.0
 10
-0.68897
 20
3.12171
 30
0.0
 10
-0.68897
 20
3.12549
 30
0.0
 10
-0.68897
 20
3.12549
 30
0.0
 10
-0.68914
 20
3.12879
 30
0.0
 10
-0.68922
 20
3.132
 30
0.0
 10
-0.68922
 20
3.13512
 30
0.0
 10
-0.68922
 20
3.13512
 30
0.0
 10
-0.68922
 20
3.13842
 30
0.0
 10
-0.68922
 20
3.14171
 30
0.0
 10
-0.68922
 20
3.145
 30
0.0
 10
-0.68922
 20
3.145
 30
0.0
 10
-0.68922
 20
3.17282
 30
0.0
 10
-0.68799
 20
3.20073
 30
0.0
 10
-0.68552
 20
3.22871
 30
0.0
 10
-0.68552
 20
3.22871
 30
0.0
 10
-0.68552
 20
3.22937
 30
0.0
 10
-0.68584
 20
3.2297
 30
0.0
 10
-0.6865
 20
3.2297
 30
0.0
 10
-0.6865
 20
3.2297
 30
0.0
 10
-0.69227
 20
3.22921
 30
0.0
 10
-0.69782
 20
3.22834
 30
0.0
 10
-0.70317
 20
3.22711
 30
0.0
 10
-0.70317
 20
3.22711
 30
0.0
 10
-0.70852
 20
3.22587
 30
0.0
 10
-0.71391
 20
3.22443
 30
0.0
 10
-0.71935
 20
3.22279
 30
0.0
 10
-0.71935
 20
3.22279
 30
0.0
 10
-0.71935
 20
3.22279
 30
0.0
 10
-0.72009
 20
3.22205
 30
0.0
 10
-0.72009
 20
3.22205
 30
0.0
 10
-0.72009
 20
3.22205
 30
0.0
 10
-0.72272
 20
3.20937
 30
0.0
 10
-0.72478
 20
3.19657
 30
0.0
 10
-0.72626
 20
3.18365
 30
0.0
 10
-0.72626
 20
3.18365
 30
0.0
 10
-0.72774
 20
3.17072
 30
0.0
 10
-0.72848
 20
3.1576
 30
0.0
 10
-0.72848
 20
3.14426
 30
0.0
 10
-0.72848
 20
3.14426
 30
0.0
 10
-0.72848
 20
3.14146
 30
0.0
 10
-0.7284
 20
3.13862
 30
0.0
 10
-0.72824
 20
3.13574
 30
0.0
 10
-0.72824
 20
3.13574
 30
0.0
 10
-0.72807
 20
3.13286
 30
0.0
 10
-0.72799
 20
3.13002
 30
0.0
 10
-0.72799
 20
3.12722
 30
0.0
 10
-0.72799
 20
3.12722
 30
0.0
 10
-0.72799
 20
3.12722
 30
0.0
 10
-0.72799
 20
3.125
 30
0.0
 10
-0.72799
 20
3.125
 30
0.0
 10
-0.72799
 20
3.125
 30
0.0
 10
-0.72799
 20
3.11693
 30
0.0
 10
-0.72651
 20
3.10907
 30
0.0
 10
-0.72354
 20
3.10142
 30
0.0
 10
-0.72354
 20
3.10142
 30
0.0
 10
-0.72058
 20
3.09376
 30
0.0
 10
-0.71642
 20
3.08693
 30
0.0
 10
-0.71107
 20
3.08092
 30
0.0
 10
-0.71107
 20
3.08092
 30
0.0
 10
-0.70572
 20
3.07491
 30
0.0
 10
-0.69943
 20
3.0701
 30
0.0
 10
-0.69218
 20
3.06647
 30
0.0
 10
-0.69218
 20
3.06647
 30
0.0
 10
-0.68494
 20
3.06285
 30
0.0
 10
-0.67712
 20
3.06104
 30
0.0
 10
-0.66872
 20
3.06104
 30
0.0
 10
-0.66872
 20
3.06104
 30
0.0
 10
-0.66872
 20
3.06104
 30
0.0
 10
-0.66749
 20
3.06104
 30
0.0
 10
-0.66749
 20
3.06104
 30
0.0
 10
-0.66749
 20
3.06104
 30
0.0
 10
-0.66683
 20
3.06104
 30
0.0
 10
-0.6665
 20
3.06137
 30
0.0
 10
-0.6665
 20
3.06203
 30
0.0
  0
SPLINE
  5
79
330
1F
100
AcDbEntity
  8
Warstwa 1
 62
   250
100
AcDbSpline
210
0.0
220
0.0
230
1.0
 70
    11
 71
     3
 72
    64
 73
    60
 74
     0
 42
0.0000000001
 43
0.0000000001
 40
0.0
 40
0.0
 40
0.0
 40
0.0
 40
0.0666666666666667
 40
0.0666666666666667
 40
0.0666666666666667
 40
0.0666666666666667
 40
0.1333333333333333
 40
0.1333333333333333
 40
0.1333333333333333
 40
0.1333333333333333
 40
0.2
 40
0.2
 40
0.2
 40
0.2
 40
0.2666666666666667
 40
0.2666666666666667
 40
0.2666666666666667
 40
0.2666666666666667
 40
0.3333333333333333
 40
0.3333333333333333
 40
0.3333333333333333
 40
0.3333333333333333
 40
0.4
 40
0.4
 40
0.4
 40
0.4
 40
0.4666666666666666
 40
0.4666666666666666
 40
0.4666666666666666
 40
0.4666666666666666
 40
0.5333333333333333
 40
0.5333333333333333
 40
0.5333333333333333
 40
0.5333333333333333
 40
0.6
 40
0.6
 40
0.6
 40
0.6
 40
0.6666666666666666
 40
0.6666666666666666
 40
0.6666666666666666
 40
0.6666666666666666
 40
0.7333333333333333
 40
0.7333333333333333
 40
0.7333333333333333
 40
0.7333333333333333
 40
0.7999999999999999
 40
0.7999999999999999
 40
0.7999999999999999
 40
0.7999999999999999
 40
0.8666666666666666
 40
0.8666666666666666
 40
0.8666666666666666
 40
0.8666666666666666
 40
0.9333333333333332
 40
0.9333333333333332
 40
0.9333333333333332
 40
0.9333333333333332
 40
1.0
 40
1.0
 40
1.0
 40
1.0
 10
-0.40724
 20
3.08626
 30
0.0
 10
-0.40724
 20
3.09456
 30
0.0
 10
-0.40828
 20
3.10218
 30
0.0
 10
-0.41036
 20
3.1091
 30
0.0
 10
-0.41036
 20
3.1091
 30
0.0
 10
-0.41036
 20
3.10933
 30
0.0
 10
-0.41047
 20
3.10956
 30
0.0
 10
-0.41071
 20
3.10979
 30
0.0
 10
-0.41071
 20
3.10979
 30
0.0
 10
-0.41094
 20
3.11002
 30
0.0
 10
-0.41105
 20
3.11014
 30
0.0
 10
-0.41105
 20
3.11014
 30
0.0
 10
-0.41105
 20
3.11014
 30
0.0
 10
-0.41843
 20
3.11152
 30
0.0
 10
-0.42559
 20
3.11222
 30
0.0
 10
-0.43251
 20
3.11222
 30
0.0
 10
-0.43251
 20
3.11222
 30
0.0
 10
-0.43989
 20
3.11222
 30
0.0
 10
-0.4467
 20
3.11141
 30
0.0
 10
-0.45293
 20
3.10979
 30
0.0
 10
-0.45293
 20
3.10979
 30
0.0
 10
-0.45293
 20
3.10979
 30
0.0
 10
-0.45397
 20
3.10875
 30
0.0
 10
-0.45397
 20
3.10875
 30
0.0
 10
-0.45397
 20
3.10875
 30
0.0
 10
-0.45581
 20
3.10091
 30
0.0
 10
-0.45674
 20
3.09318
 30
0.0
 10
-0.45674
 20
3.08557
 30
0.0
 10
-0.45674
 20
3.08557
 30
0.0
 10
-0.45674
 20
3.07887
 30
0.0
 10
-0.45605
 20
3.07241
 30
0.0
 10
-0.45466
 20
3.06618
 30
0.0
 10
-0.45466
 20
3.06618
 30
0.0
 10
-0.45466
 20
3.06549
 30
0.0
 10
-0.45432
 20
3.06514
 30
0.0
 10
-0.45362
 20
3.06514
 30
0.0
 10
-0.45362
 20
3.06514
 30
0.0
 10
-0.44993
 20
3.06445
 30
0.0
 10
-0.44624
 20
3.06388
 30
0.0
 10
-0.44255
 20
3.06341
 30
0.0
 10
-0.44255
 20
3.06341
 30
0.0
 10
-0.43886
 20
3.06295
 30
0.0
 10
-0.43505
 20
3.06272
 30
0.0
 10
-0.43113
 20
3.06272
 30
0.0
 10
-0.43113
 20
3.06272
 30
0.0
 10
-0.42351
 20
3.06272
 30
0.0
 10
-0.41682
 20
3.06353
 30
0.0
 10
-0.41105
 20
3.06514
 30
0.0
 10
-0.41105
 20
3.06514
 30
0.0
 10
-0.41036
 20
3.06514
 30
0.0
 10
-0.41001
 20
3.06549
 30
0.0
 10
-0.41001
 20
3.06618
 30
0.0
 10
-0.41001
 20
3.06618
 30
0.0
 10
-0.40886
 20
3.06941
 30
0.0
 10
-0.40811
 20
3.0727
 30
0.0
 10
-0.40776
 20
3.07605
 30
0.0
 10
-0.40776
 20
3.07605
 30
0.0
 10
-0.40742
 20
3.07939
 30
0.0
 10
-0.40724
 20
3.0828
 30
0.0
 10
-0.40724
 20
3.08626
 30
0.0
  0
SPLINE
  5
7A
330
1F
100
AcDbEntity
  8
Warstwa 1
 62
   250
100
AcDbSpline
210
0.0
220
0.0
230
1.0
 70
    11
 71
     3
 72
   200
 73
   196
 74
     0
 42
0.0000000001
 43
0.0000000001
 40
0.0
 40
0.0
 40
0.0
 40
0.0
 40
0.0204081632653061
 40
0.0204081632653061
 40
0.0204081632653061
 40
0.0204081632653061
 40
0.0408163265306122
 40
0.0408163265306122
 40
0.0408163265306122
 40
0.0408163265306122
 40
0.0612244897959184
 40
0.0612244897959184
 40
0.0612244897959184
 40
0.0612244897959184
 40
0.0816326530612245
 40
0.0816326530612245
 40
0.0816326530612245
 40
0.0816326530612245
 40
0.1020408163265306
 40
0.1020408163265306
 40
0.1020408163265306
 40
0.1020408163265306
 40
0.1224489795918367
 40
0.1224489795918367
 40
0.1224489795918367
 40
0.1224489795918367
 40
0.1428571428571428
 40
0.1428571428571428
 40
0.1428571428571428
 40
0.1428571428571428
 40
0.163265306122449
 40
0.163265306122449
 40
0.163265306122449
 40
0.163265306122449
 40
0.1836734693877551
 40
0.1836734693877551
 40
0.1836734693877551
 40
0.1836734693877551
 40
0.2040816326530612
 40
0.2040816326530612
 40
0.2040816326530612
 40
0.2040816326530612
 40
0.2244897959183673
 40
0.2244897959183673
 40
0.2244897959183673
 40
0.2244897959183673
 40
0.2448979591836734
 40
0.2448979591836734
 40
0.2448979591836734
 40
0.2448979591836734
 40
0.2653061224489796
 40
0.2653061224489796
 40
0.2653061224489796
 40
0.2653061224489796
 40
0.2857142857142857
 40
0.2857142857142857
 40
0.2857142857142857
 40
0.2857142857142857
 40
0.3061224489795918
 40
0.3061224489795918
 40
0.3061224489795918
 40
0.3061224489795918
 40
0.326530612244898
 40
0.326530612244898
 40
0.326530612244898
 40
0.326530612244898
 40
0.3469387755102041
 40
0.3469387755102041
 40
0.3469387755102041
 40
0.3469387755102041
 40
0.3673469387755103
 40
0.3673469387755103
 40
0.3673469387755103
 40
0.3673469387755103
 40
0.3877551020408164
 40
0.3877551020408164
 40
0.3877551020408164
 40
0.3877551020408164
 40
0.4081632653061226
 40
0.4081632653061226
 40
0.4081632653061226
 40
0.4081632653061226
 40
0.4285714285714287
 40
0.4285714285714287
 40
0.4285714285714287
 40
0.4285714285714287
 40
0.4489795918367349
 40
0.4489795918367349
 40
0.4489795918367349
 40
0.4489795918367349
 40
0.469387755102041
 40
0.469387755102041
 40
0.469387755102041
 40
0.469387755102041
 40
0.4897959183673471
 40
0.4897959183673471
 40
0.4897959183673471
 40
0.4897959183673471
 40
0.5102040816326533
 40
0.5102040816326533
 40
0.5102040816326533
 40
0.5102040816326533
 40
0.5306122448979594
 40
0.5306122448979594
 40
0.5306122448979594
 40
0.5306122448979594
 40
0.5510204081632656
 40
0.5510204081632656
 40
0.5510204081632656
 40
0.5510204081632656
 40
0.5714285714285717
 40
0.5714285714285717
 40
0.5714285714285717
 40
0.5714285714285717
 40
0.5918367346938779
 40
0.5918367346938779
 40
0.5918367346938779
 40
0.5918367346938779
 40
0.612244897959184
 40
0.612244897959184
 40
0.612244897959184
 40
0.612244897959184
 40
0.6326530612244902
 40
0.6326530612244902
 40
0.6326530612244902
 40
0.6326530612244902
 40
0.6530612244897963
 40
0.6530612244897963
 40
0.6530612244897963
 40
0.6530612244897963
 40
0.6734693877551025
 40
0.6734693877551025
 40
0.6734693877551025
 40
0.6734693877551025
 40
0.6938775510204086
 40
0.6938775510204086
 40
0.6938775510204086
 40
0.6938775510204086
 40
0.7142857142857147
 40
0.7142857142857147
 40
0.7142857142857147
 40
0.7142857142857147
 40
0.7346938775510209
 40
0.7346938775510209
 40
0.7346938775510209
 40
0.7346938775510209
 40
0.755102040816327
 40
0.755102040816327
 40
0.755102040816327
 40
0.755102040816327
 40
0.7755102040816332
 40
0.7755102040816332
 40
0.7755102040816332
 40
0.7755102040816332
 40
0.7959183673469393
 40
0.7959183673469393
 40
0.7959183673469393
 40
0.7959183673469393
 40
0.8163265306122455
 40
0.8163265306122455
 40
0.8163265306122455
 40
0.8163265306122455
 40
0.8367346938775516
 40
0.8367346938775516
 40
0.8367346938775516
 40
0.8367346938775516
 40
0.8571428571428578
 40
0.8571428571428578
 40
0.8571428571428578
 40
0.8571428571428578
 40
0.8775510204081639
 40
0.8775510204081639
 40
0.8775510204081639
 40
0.8775510204081639
 40
0.89795918367347
 40
0.89795918367347
 40
0.89795918367347
 40
0.89795918367347
 40
0.9183673469387762
 40
0.9183673469387762
 40
0.9183673469387762
 40
0.9183673469387762
 40
0.9387755102040823
 40
0.9387755102040823
 40
0.9387755102040823
 40
0.9387755102040823
 40
0.9591836734693885
 40
0.9591836734693885
 40
0.9591836734693885
 40
0.9591836734693885
 40
0.9795918367346946
 40
0.9795918367346946
 40
0.9795918367346946
 40
0.9795918367346946
 40
1.0
 40
1.0
 40
1.0
 40
1.0
 10
-0.04929
 20
3.14198
 30
0.0
 10
-0.04929
 20
3.14706
 30
0.0
 10
-0.04964
 20
3.1519
 30
0.0
 10
-0.05033
 20
3.15652
 30
0.0
 10
-0.05033
 20
3.15652
 30
0.0
 10
-0.05056
 20
3.16621
 30
0.0
 10
-0.05195
 20
3.1763
 30
0.0
 10
-0.05448
 20
3.1868
 30
0.0
 10
-0.05448
 20
3.1868
 30
0.0
 10
-0.05702
 20
3.1973
 30
0.0
 10
-0.06089
 20
3.20693
 30
0.0
 10
-0.06608
 20
3.2157
 30
0.0
 10
-0.06608
 20
3.2157
 30
0.0
 10
-0.07127
 20
3.22447
 30
0.0
 10
-0.07785
 20
3.23191
 30
0.0
 10
-0.08581
 20
3.23803
 30
0.0
 10
-0.08581
 20
3.23803
 30
0.0
 10
-0.09377
 20
3.24414
 30
0.0
 10
-0.10328
 20
3.24778
 30
0.0
 10
-0.11436
 20
3.24893
 30
0.0
 10
-0.11436
 20
3.24893
 30
0.0
 10
-0.11436
 20
3.24893
 30
0.0
 10
-0.1154
 20
3.24893
 30
0.0
 10
-0.1154
 20
3.24893
 30
0.0
 10
-0.1154
 20
3.24893
 30
0.0
 10
-0.12071
 20
3.24893
 30
0.0
 10
-0.1259
 20
3.24789
 30
0.0
 10
-0.13097
 20
3.24581
 30
0.0
 10
-0.13097
 20
3.24581
 30
0.0
 10
-0.13605
 20
3.24374
 30
0.0
 10
-0.14101
 20
3.24131
 30
0.0
 10
-0.14586
 20
3.23855
 30
0.0
 10
-0.14586
 20
3.23855
 30
0.0
 10
-0.14678
 20
3.23785
 30
0.0
 10
-0.14689
 20
3.23716
 30
0.0
 10
-0.1462
 20
3.23647
 30
0.0
 10
-0.1462
 20
3.23647
 30
0.0
 10
-0.1462
 20
3.23647
 30
0.0
 10
-0.1462
 20
3.21847
 30
0.0
 10
-0.1462
 20
3.21847
 30
0.0
 10
-0.1462
 20
3.21847
 30
0.0
 10
-0.1462
 20
3.21524
 30
0.0
 10
-0.14626
 20
3.21201
 30
0.0
 10
-0.14638
 20
3.20878
 30
0.0
 10
-0.14638
 20
3.20878
 30
0.0
 10
-0.14649
 20
3.20555
 30
0.0
 10
-0.14655
 20
3.20232
 30
0.0
 10
-0.14655
 20
3.19909
 30
0.0
 10
-0.14655
 20
3.19909
 30
0.0
 10
-0.14655
 20
3.19817
 30
0.0
 10
-0.14609
 20
3.19771
 30
0.0
 10
-0.14516
 20
3.19771
 30
0.0
 10
-0.14516
 20
3.19771
 30
0.0
 10
-0.14493
 20
3.19794
 30
0.0
 10
-0.14447
 20
3.19822
 30
0.0
 10
-0.14378
 20
3.19857
 30
0.0
 10
-0.14378
 20
3.19857
 30
0.0
 10
-0.14309
 20
3.19892
 30
0.0
 10
-0.14251
 20
3.19932
 30
0.0
 10
-0.14205
 20
3.19978
 30
0.0
 10
-0.14205
 20
3.19978
 30
0.0
 10
-0.13905
 20
3.20163
 30
0.0
 10
-0.13605
 20
3.2033
 30
0.0
 10
-0.13305
 20
3.2048
 30
0.0
 10
-0.13305
 20
3.2048
 30
0.0
 10
-0.13005
 20
3.2063
 30
0.0
 10
-0.1267
 20
3.20705
 30
0.0
 10
-0.12301
 20
3.20705
 30
0.0
 10
-0.12301
 20
3.20705
 30
0.0
 10
-0.12301
 20
3.20705
 30
0.0
 10
-0.12128
 20
3.20705
 30
0.0
 10
-0.12128
 20
3.20705
 30
0.0
 10
-0.12128
 20
3.20705
 30
0.0
 10
-0.11667
 20
3.20705
 30
0.0
 10
-0.1128
 20
3.20532
 30
0.0
 10
-0.10969
 20
3.20186
 30
0.0
 10
-0.10969
 20
3.20186
 30
0.0
 10
-0.10657
 20
3.1984
 30
0.0
 10
-0.10467
 20
3.19459
 30
0.0
 10
-0.10398
 20
3.19044
 30
0.0
 10
-0.10398
 20
3.19044
 30
0.0
 10
-0.10352
 20
3.1879
 30
0.0
 10
-0.10328
 20
3.18548
 30
0.0
 10
-0.10328
 20
3.18317
 30
0.0
 10
-0.10328
 20
3.18317
 30
0.0
 10
-0.10328
 20
3.18109
 30
0.0
 10
-0.10328
 20
3.17902
 30
0.0
 10
-0.10328
 20
3.17694
 30
0.0
 10
-0.10328
 20
3.17694
 30
0.0
 10
-0.10328
 20
3.17486
 30
0.0
 10
-0.10334
 20
3.1729
 30
0.0
 10
-0.10346
 20
3.17105
 30
0.0
 10
-0.10346
 20
3.17105
 30
0.0
 10
-0.10357
 20
3.16921
 30
0.0
 10
-0.10363
 20
3.16736
 30
0.0
 10
-0.10363
 20
3.16552
 30
0.0
 10
-0.10363
 20
3.16552
 30
0.0
 10
-0.10363
 20
3.16367
 30
0.0
 10
-0.10369
 20
3.16194
 30
0.0
 10
-0.1038
 20
3.16033
 30
0.0
 10
-0.1038
 20
3.16033
 30
0.0
 10
-0.10392
 20
3.15871
 30
0.0
 10
-0.10398
 20
3.15698
 30
0.0
 10
-0.10398
 20
3.15513
 30
0.0
 10
-0.10398
 20
3.15513
 30
0.0
 10
-0.10398
 20
3.15329
 30
0.0
 10
-0.10398
 20
3.15156
 30
0.0
 10
-0.10398
 20
3.14994
 30
0.0
 10
-0.10398
 20
3.14994
 30
0.0
 10
-0.10398
 20
3.14856
 30
0.0
 10
-0.10386
 20
3.14694
 30
0.0
 10
-0.10363
 20
3.1451
 30
0.0
 10
-0.10363
 20
3.1451
 30
0.0
 10
-0.1034
 20
3.14256
 30
0.0
 10
-0.10323
 20
3.14002
 30
0.0
 10
-0.10311
 20
3.13748
 30
0.0
 10
-0.10311
 20
3.13748
 30
0.0
 10
-0.103
 20
3.13494
 30
0.0
 10
-0.10294
 20
3.13241
 30
0.0
 10
-0.10294
 20
3.12987
 30
0.0
 10
-0.10294
 20
3.12987
 30
0.0
 10
-0.10294
 20
3.12987
 30
0.0
 10
-0.10294
 20
3.12606
 30
0.0
 10
-0.10294
 20
3.12606
 30
0.0
 10
-0.10294
 20
3.12606
 30
0.0
 10
-0.10294
 20
3.11891
 30
0.0
 10
-0.10484
 20
3.11349
 30
0.0
 10
-0.10865
 20
3.10979
 30
0.0
 10
-0.10865
 20
3.10979
 30
0.0
 10
-0.11246
 20
3.1061
 30
0.0
 10
-0.1169
 20
3.10426
 30
0.0
 10
-0.12197
 20
3.10426
 30
0.0
 10
-0.12197
 20
3.10426
 30
0.0
 10
-0.12197
 20
3.10426
 30
0.0
 10
-0.12371
 20
3.10426
 30
0.0
 10
-0.12371
 20
3.10426
 30
0.0
 10
-0.12371
 20
3.10426
 30
0.0
 10
-0.12809
 20
3.10426
 30
0.0
 10
-0.13213
 20
3.10512
 30
0.0
 10
-0.13582
 20
3.10685
 30
0.0
 10
-0.13582
 20
3.10685
 30
0.0
 10
-0.13951
 20
3.10858
 30
0.0
 10
-0.14309
 20
3.11049
 30
0.0
 10
-0.14655
 20
3.11256
 30
0.0
 10
-0.14655
 20
3.11256
 30
0.0
 10
-0.14793
 20
3.11349
 30
0.0
 10
-0.14863
 20
3.11314
 30
0.0
 10
-0.14863
 20
3.11152
 30
0.0
 10
-0.14863
 20
3.11152
 30
0.0
 10
-0.14863
 20
3.10414
 30
0.0
 10
-0.14863
 20
3.09687
 30
0.0
 10
-0.14863
 20
3.08972
 30
0.0
 10
-0.14863
 20
3.08972
 30
0.0
 10
-0.14863
 20
3.08257
 30
0.0
 10
-0.14851
 20
3.0753
 30
0.0
 10
-0.14828
 20
3.06791
 30
0.0
 10
-0.14828
 20
3.06791
 30
0.0
 10
-0.14828
 20
3.06699
 30
0.0
 10
-0.14793
 20
3.06653
 30
0.0
 10
-0.14724
 20
3.06653
 30
0.0
 10
-0.14724
 20
3.06653
 30
0.0
 10
-0.14609
 20
3.06607
 30
0.0
 10
-0.14511
 20
3.06578
 30
0.0
 10
-0.1443
 20
3.06566
 30
0.0
 10
-0.1443
 20
3.06566
 30
0.0
 10
-0.14349
 20
3.06555
 30
0.0
 10
-0.14251
 20
3.06526
 30
0.0
 10
-0.14136
 20
3.0648
 30
0.0
 10
-0.14136
 20
3.0648
 30
0.0
 10
-0.13697
 20
3.06318
 30
0.0
 10
-0.13247
 20
3.0618
 30
0.0
 10
-0.12786
 20
3.06065
 30
0.0
 10
-0.12786
 20
3.06065
 30
0.0
 10
-0.12324
 20
3.05949
 30
0.0
 10
-0.11851
 20
3.05892
 30
0.0
 10
-0.11367
 20
3.05892
 30
0.0
 10
-0.11367
 20
3.05892
 30
0.0
 10
-0.11367
 20
3.05892
 30
0.0
 10
-0.11194
 20
3.05892
 30
0.0
 10
-0.11194
 20
3.05892
 30
0.0
 10
-0.11194
 20
3.05892
 30
0.0
 10
-0.10109
 20
3.05892
 30
0.0
 10
-0.09169
 20
3.06145
 30
0.0
 10
-0.08373
 20
3.06653
 30
0.0
 10
-0.08373
 20
3.06653
 30
0.0
 10
-0.07577
 20
3.07161
 30
0.0
 10
-0.06925
 20
3.07812
 30
0.0
 10
-0.06417
 20
3.08608
 30
0.0
 10
-0.06417
 20
3.08608
 30
0.0
 10
-0.0591
 20
3.09405
 30
0.0
 10
-0.05535
 20
3.10293
 30
0.0
 10
-0.05293
 20
3.11274
 30
0.0
 10
-0.05293
 20
3.11274
 30
0.0
 10
-0.0505
 20
3.12254
 30
0.0
 10
-0.04929
 20
3.13229
 30
0.0
 10
-0.04929
 20
3.14198
 30
0.0
  0
SPLINE
  5
7B
330
1F
100
AcDbEntity
  8
Warstwa 1
 62
   250
100
AcDbSpline
210
0.0
220
0.0
230
1.0
 70
    11
 71
     3
 72
    20
 73
    16
 74
     0
 42
0.0000000001
 43
0.0000000001
 40
0.0
 40
0.0
 40
0.0
 40
0.0
 40
0.25
 40
0.25
 40
0.25
 40
0.25
 40
0.5
 40
0.5
 40
0.5
 40
0.5
 40
0.75
 40
0.75
 40
0.75
 40
0.75
 40
1.0
 40
1.0
 40
1.0
 40
1.0
 10
-0.14447
 20
3.19771
 30
0.0
 10
-0.1447
 20
3.19747
 30
0.0
 10
-0.14488
 20
3.19742
 30
0.0
 10
-0.14499
 20
3.19753
 30
0.0
 10
-0.14499
 20
3.19753
 30
0.0
 10
-0.14511
 20
3.19765
 30
0.0
 10
-0.14516
 20
3.19771
 30
0.0
 10
-0.14516
 20
3.19771
 30
0.0
 10
-0.14516
 20
3.19771
 30
0.0
 10
-0.14539
 20
3.19747
 30
0.0
 10
-0.14545
 20
3.1973
 30
0.0
 10
-0.14534
 20
3.19719
 30
0.0
 10
-0.14534
 20
3.19719
 30
0.0
 10
-0.14522
 20
3.19707
 30
0.0
 10
-0.14493
 20
3.19724
 30
0.0
 10
-0.14447
 20
3.19771
 30
0.0
  0
SPLINE
  5
7C
330
1F
100
AcDbEntity
  8
Warstwa 1
 62
   250
100
AcDbSpline
210
0.0
220
0.0
230
1.0
 70
    11
 71
     3
 72
    56
 73
    52
 74
     0
 42
0.0000000001
 43
0.0000000001
 40
0.0
 40
0.0
 40
0.0
 40
0.0
 40
0.0769230769230769
 40
0.0769230769230769
 40
0.0769230769230769
 40
0.0769230769230769
 40
0.1538461538461539
 40
0.1538461538461539
 40
0.1538461538461539
 40
0.1538461538461539
 40
0.2307692307692308
 40
0.2307692307692308
 40
0.2307692307692308
 40
0.2307692307692308
 40
0.3076923076923077
 40
0.3076923076923077
 40
0.3076923076923077
 40
0.3076923076923077
 40
0.3846153846153846
 40
0.3846153846153846
 40
0.3846153846153846
 40
0.3846153846153846
 40
0.4615384615384616
 40
0.4615384615384616
 40
0.4615384615384616
 40
0.4615384615384616
 40
0.5384615384615385
 40
0.5384615384615385
 40
0.5384615384615385
 40
0.5384615384615385
 40
0.6153846153846154
 40
0.6153846153846154
 40
0.6153846153846154
 40
0.6153846153846154
 40
0.6923076923076923
 40
0.6923076923076923
 40
0.6923076923076923
 40
0.6923076923076923
 40
0.7692307692307692
 40
0.7692307692307692
 40
0.7692307692307692
 40
0.7692307692307692
 40
0.846153846153846
 40
0.846153846153846
 40
0.846153846153846
 40
0.846153846153846
 40
0.9230769230769229
 40
0.9230769230769229
 40
0.9230769230769229
 40
0.9230769230769229
 40
1.0
 40
1.0
 40
1.0
 40
1.0
 10
-0.16835
 20
3.01219
 30
0.0
 10
-0.17112
 20
3.05095
 30
0.0
 10
-0.17251
 20
3.08995
 30
0.0
 10
-0.17251
 20
3.12918
 30
0.0
 10
-0.17251
 20
3.12918
 30
0.0
 10
-0.17251
 20
3.16679
 30
0.0
 10
-0.17112
 20
3.20451
 30
0.0
 10
-0.16835
 20
3.24235
 30
0.0
 10
-0.16835
 20
3.24235
 30
0.0
 10
-0.16835
 20
3.24328
 30
0.0
 10
-0.16882
 20
3.24374
 30
0.0
 10
-0.16974
 20
3.24374
 30
0.0
 10
-0.16974
 20
3.24374
 30
0.0
 10
-0.17735
 20
3.24305
 30
0.0
 10
-0.18491
 20
3.24189
 30
0.0
 10
-0.19241
 20
3.24028
 30
0.0
 10
-0.19241
 20
3.24028
 30
0.0
 10
-0.19991
 20
3.23866
 30
0.0
 10
-0.20735
 20
3.2367
 30
0.0
 10
-0.21473
 20
3.23439
 30
0.0
 10
-0.21473
 20
3.23439
 30
0.0
 10
-0.21473
 20
3.23439
 30
0.0
 10
-0.21577
 20
3.23335
 30
0.0
 10
-0.21577
 20
3.23335
 30
0.0
 10
-0.21577
 20
3.23335
 30
0.0
 10
-0.219
 20
3.21582
 30
0.0
 10
-0.22148
 20
3.19834
 30
0.0
 10
-0.22321
 20
3.18092
 30
0.0
 10
-0.22321
 20
3.18092
 30
0.0
 10
-0.22494
 20
3.1635
 30
0.0
 10
-0.22581
 20
3.14579
 30
0.0
 10
-0.22581
 20
3.12779
 30
0.0
 10
-0.22581
 20
3.12779
 30
0.0
 10
-0.22581
 20
3.09272
 30
0.0
 10
-0.22246
 20
3.05776
 30
0.0
 10
-0.21577
 20
3.02292
 30
0.0
 10
-0.21577
 20
3.02292
 30
0.0
 10
-0.21577
 20
3.02223
 30
0.0
 10
-0.21542
 20
3.02188
 30
0.0
 10
-0.21473
 20
3.02188
 30
0.0
 10
-0.21473
 20
3.02188
 30
0.0
 10
-0.20735
 20
3.01934
 30
0.0
 10
-0.19991
 20
3.01715
 30
0.0
 10
-0.19241
 20
3.01531
 30
0.0
 10
-0.19241
 20
3.01531
 30
0.0
 10
-0.18491
 20
3.01346
 30
0.0
 10
-0.17747
 20
3.01196
 30
0.0
 10
-0.17008
 20
3.01081
 30
0.0
 10
-0.17008
 20
3.01081
 30
0.0
 10
-0.16893
 20
3.01081
 30
0.0
 10
-0.16835
 20
3.01127
 30
0.0
 10
-0.16835
 20
3.01219
 30
0.0
  0
SPLINE
  5
7D
330
1F
100
AcDbEntity
  8
Warstwa 1
 62
   250
100
AcDbSpline
210
0.0
220
0.0
230
1.0
 70
    11
 71
     3
 72
    68
 73
    64
 74
     0
 42
0.0000000001
 43
0.0000000001
 40
0.0
 40
0.0
 40
0.0
 40
0.0
 40
0.0625
 40
0.0625
 40
0.0625
 40
0.0625
 40
0.125
 40
0.125
 40
0.125
 40
0.125
 40
0.1875
 40
0.1875
 40
0.1875
 40
0.1875
 40
0.25
 40
0.25
 40
0.25
 40
0.25
 40
0.3125
 40
0.3125
 40
0.3125
 40
0.3125
 40
0.375
 40
0.375
 40
0.375
 40
0.375
 40
0.4375
 40
0.4375
 40
0.4375
 40
0.4375
 40
0.5
 40
0.5
 40
0.5
 40
0.5
 40
0.5625
 40
0.5625
 40
0.5625
 40
0.5625
 40
0.625
 40
0.625
 40
0.625
 40
0.625
 40
0.6875
 40
0.6875
 40
0.6875
 40
0.6875
 40
0.75
 40
0.75
 40
0.75
 40
0.75
 40
0.8125
 40
0.8125
 40
0.8125
 40
0.8125
 40
0.875
 40
0.875
 40
0.875
 40
0.875
 40
0.9375
 40
0.9375
 40
0.9375
 40
0.9375
 40
1.0
 40
1.0
 40
1.0
 40
1.0
 10
0.18475
 20
3.18075
 30
0.0
 10
0.18475
 20
3.19874
 30
0.0
 10
0.18446
 20
3.21663
 30
0.0
 10
0.18389
 20
3.23439
 30
0.0
 10
0.18389
 20
3.23439
 30
0.0
 10
0.18331
 20
3.25216
 30
0.0
 10
0.18244
 20
3.26993
 30
0.0
 10
0.18129
 20
3.28769
 30
0.0
 10
0.18129
 20
3.28769
 30
0.0
 10
0.17852
 20
3.29185
 30
0.0
 10
0.17512
 20
3.29502
 30
0.0
 10
0.17108
 20
3.29721
 30
0.0
 10
0.17108
 20
3.29721
 30
0.0
 10
0.16704
 20
3.2994
 30
0.0
 10
0.16283
 20
3.3005
 30
0.0
 10
0.15845
 20
3.3005
 30
0.0
 10
0.15845
 20
3.3005
 30
0.0
 10
0.15429
 20
3.3005
 30
0.0
 10
0.15026
 20
3.29946
 30
0.0
 10
0.14633
 20
3.29738
 30
0.0
 10
0.14633
 20
3.29738
 30
0.0
 10
0.14241
 20
3.29531
 30
0.0
 10
0.13906
 20
3.29231
 30
0.0
 10
0.1363
 20
3.28839
 30
0.0
 10
0.1363
 20
3.28839
 30
0.0
 10
0.1363
 20
3.28839
 30
0.0
 10
0.13595
 20
3.28769
 30
0.0
 10
0.13595
 20
3.28769
 30
0.0
 10
0.13595
 20
3.28769
 30
0.0
 10
0.13387
 20
3.25193
 30
0.0
 10
0.13283
 20
3.21582
 30
0.0
 10
0.13283
 20
3.17936
 30
0.0
 10
0.13283
 20
3.17936
 30
0.0
 10
0.13283
 20
3.16275
 30
0.0
 10
0.13307
 20
3.14608
 30
0.0
 10
0.13353
 20
3.12935
 30
0.0
 10
0.13353
 20
3.12935
 30
0.0
 10
0.13399
 20
3.11262
 30
0.0
 10
0.13456
 20
3.09595
 30
0.0
 10
0.13526
 20
3.07934
 30
0.0
 10
0.13526
 20
3.07934
 30
0.0
 10
0.13826
 20
3.07518
 30
0.0
 10
0.14195
 20
3.07195
 30
0.0
 10
0.14633
 20
3.06964
 30
0.0
 10
0.14633
 20
3.06964
 30
0.0
 10
0.15072
 20
3.06734
 30
0.0
 10
0.15522
 20
3.06618
 30
0.0
 10
0.15983
 20
3.06618
 30
0.0
 10
0.15983
 20
3.06618
 30
0.0
 10
0.16398
 20
3.06618
 30
0.0
 10
0.16796
 20
3.06711
 30
0.0
 10
0.17177
 20
3.06895
 30
0.0
 10
0.17177
 20
3.06895
 30
0.0
 10
0.17558
 20
3.0708
 30
0.0
 10
0.17875
 20
3.07368
 30
0.0
 10
0.18129
 20
3.0776
 30
0.0
 10
0.18129
 20
3.0776
 30
0.0
 10
0.18244
 20
3.09491
 30
0.0
 10
0.18331
 20
3.1121
 30
0.0
 10
0.18389
 20
3.12918
 30
0.0
 10
0.18389
 20
3.12918
 30
0.0
 10
0.18446
 20
3.14625
 30
0.0
 10
0.18475
 20
3.16344
 30
0.0
 10
0.18475
 20
3.18075
 30
0.0
  0
SPLINE
  5
7E
330
1F
100
AcDbEntity
  8
Warstwa 1
 62
   250
100
AcDbSpline
210
0.0
220
0.0
230
1.0
 70
    11
 71
     3
 72
    20
 73
    16
 74
     0
 42
0.0000000001
 43
0.0000000001
 40
0.0
 40
0.0
 40
0.0
 40
0.0
 40
0.25
 40
0.25
 40
0.25
 40
0.25
 40
0.5
 40
0.5
 40
0.5
 40
0.5
 40
0.75
 40
0.75
 40
0.75
 40
0.75
 40
1.0
 40
1.0
 40
1.0
 40
1.0
 10
3.64962
 20
5.79628
 30
0.0
 10
3.52538
 20
5.79628
 30
0.0
 10
3.42462
 20
5.69552
 30
0.0
 10
3.42462
 20
5.57128
 30
0.0
 10
3.42462
 20
5.57128
 30
0.0
 10
3.42462
 20
5.44704
 30
0.0
 10
3.52538
 20
5.34628
 30
0.0
 10
3.64962
 20
5.34628
 30
0.0
 10
3.64962
 20
5.34628
 30
0.0
 10
3.77386
 20
5.34628
 30
0.0
 10
3.87462
 20
5.44704
 30
0.0
 10
3.87462
 20
5.57128
 30
0.0
 10
3.87462
 20
5.57128
 30
0.0
 10
3.87462
 20
5.69552
 30
0.0
 10
3.77386
 20
5.79628
 30
0.0
 10
3.64962
 20
5.79628
 30
0.0
  0
SPLINE
  5
7F
330
1F
100
AcDbEntity
  8
Warstwa 1
 62
   250
100
AcDbSpline
210
0.0
220
0.0
230
1.0
 70
    11
 71
     3
 72
    28
 73
    24
 74
     0
 42
0.0000000001
 43
0.0000000001
 40
0.0
 40
0.0
 40
0.0
 40
0.0
 40
0.1666666666666667
 40
0.1666666666666667
 40
0.1666666666666667
 40
0.1666666666666667
 40
0.3333333333333333
 40
0.3333333333333333
 40
0.3333333333333333
 40
0.3333333333333333
 40
0.5
 40
0.5
 40
0.5
 40
0.5
 40
0.6666666666666666
 40
0.6666666666666666
 40
0.6666666666666666
 40
0.6666666666666666
 40
0.8333333333333333
 40
0.8333333333333333
 40
0.8333333333333333
 40
0.8333333333333333
 40
1.0
 40
1.0
 40
1.0
 40
1.0
 10
1.41466
 20
3.41814
 30
0.0
 10
1.41466
 20
3.2893
 30
0.0
 10
1.3139
 20
3.18481
 30
0.0
 10
1.18966
 20
3.18481
 30
0.0
 10
1.18966
 20
3.18481
 30
0.0
 10
1.06542
 20
3.18481
 30
0.0
 10
0.96466
 20
3.2893
 30
0.0
 10
0.96466
 20
3.41814
 30
0.0
 10
0.96466
 20
3.41814
 30
0.0
 10
0.96466
 20
3.41814
 30
0.0
 10
0.96466
 20
3.65148
 30
0.0
 10
0.96466
 20
3.65148
 30
0.0
 10
0.96466
 20
3.65148
 30
0.0
 10
0.96466
 20
3.78032
 30
0.0
 10
1.06542
 20
3.88481
 30
0.0
 10
1.18966
 20
3.88481
 30
0.0
 10
1.18966
 20
3.88481
 30
0.0
 10
1.3139
 20
3.88481
 30
0.0
 10
1.41466
 20
3.78032
 30
0.0
 10
1.41466
 20
3.65148
 30
0.0
 10
1.41466
 20
3.65148
 30
0.0
 10
1.41466
 20
3.65148
 30
0.0
 10
1.41466
 20
3.41814
 30
0.0
 10
1.41466
 20
3.41814
 30
0.0
  0
SPLINE
  5
80
330
1F
100
AcDbEntity
  8
Warstwa 1
 62
   250
100
AcDbSpline
210
0.0
220
0.0
230
1.0
 70
    11
 71
     3
 72
    28
 73
    24
 74
     0
 42
0.0000000001
 43
0.0000000001
 40
0.0
 40
0.0
 40
0.0
 40
0.0
 40
0.1666666666666667
 40
0.1666666666666667
 40
0.1666666666666667
 40
0.1666666666666667
 40
0.3333333333333333
 40
0.3333333333333333
 40
0.3333333333333333
 40
0.3333333333333333
 40
0.5
 40
0.5
 40
0.5
 40
0.5
 40
0.6666666666666666
 40
0.6666666666666666
 40
0.6666666666666666
 40
0.6666666666666666
 40
0.8333333333333333
 40
0.8333333333333333
 40
0.8333333333333333
 40
0.8333333333333333
 40
1.0
 40
1.0
 40
1.0
 40
1.0
 10
-3.02234
 20
3.41814
 30
0.0
 10
-3.02234
 20
3.2893
 30
0.0
 10
-3.1231
 20
3.18481
 30
0.0
 10
-3.24734
 20
3.18481
 30
0.0
 10
-3.24734
 20
3.18481
 30
0.0
 10
-3.37158
 20
3.18481
 30
0.0
 10
-3.47234
 20
3.2893
 30
0.0
 10
-3.47234
 20
3.41814
 30
0.0
 10
-3.47234
 20
3.41814
 30
0.0
 10
-3.47234
 20
3.41814
 30
0.0
 10
-3.47234
 20
3.65148
 30
0.0
 10
-3.47234
 20
3.65148
 30
0.0
 10
-3.47234
 20
3.65148
 30
0.0
 10
-3.47234
 20
3.78032
 30
0.0
 10
-3.37158
 20
3.88481
 30
0.0
 10
-3.24734
 20
3.88481
 30
0.0
 10
-3.24734
 20
3.88481
 30
0.0
 10
-3.1231
 20
3.88481
 30
0.0
 10
-3.02234
 20
3.78032
 30
0.0
 10
-3.02234
 20
3.65148
 30
0.0
 10
-3.02234
 20
3.65148
 30
0.0
 10
-3.02234
 20
3.65148
 30
0.0
 10
-3.02234
 20
3.41814
 30
0.0
 10
-3.02234
 20
3.41814
 30
0.0
  0
SPLINE
  5
81
330
1F
100
AcDbEntity
  8
Warstwa 1
 62
   250
100
AcDbSpline
210
0.0
220
0.0
230
1.0
 70
    11
 71
     3
 72
    20
 73
    16
 74
     0
 42
0.0000000001
 43
0.0000000001
 40
0.0
 40
0.0
 40
0.0
 40
0.0
 40
0.25
 40
0.25
 40
0.25
 40
0.25
 40
0.5
 40
0.5
 40
0.5
 40
0.5
 40
0.75
 40
0.75
 40
0.75
 40
0.75
 40
1.0
 40
1.0
 40
1.0
 40
1.0
 10
-5.71038
 20
5.79628
 30
0.0
 10
-5.58614
 20
5.79628
 30
0.0
 10
-5.48538
 20
5.69552
 30
0.0
 10
-5.48538
 20
5.57128
 30
0.0
 10
-5.48538
 20
5.57128
 30
0.0
 10
-5.48538
 20
5.44704
 30
0.0
 10
-5.58614
 20
5.34628
 30
0.0
 10
-5.71038
 20
5.34628
 30
0.0
 10
-5.71038
 20
5.34628
 30
0.0
 10
-5.83462
 20
5.34628
 30
0.0
 10
-5.93538
 20
5.44704
 30
0.0
 10
-5.93538
 20
5.57128
 30
0.0
 10
-5.93538
 20
5.57128
 30
0.0
 10
-5.93538
 20
5.69552
 30
0.0
 10
-5.83462
 20
5.79628
 30
0.0
 10
-5.71038
 20
5.79628
 30
0.0
  0
SPLINE
  5
82
330
1F
100
AcDbEntity
  8
Warstwa 1
 62
   250
100
AcDbSpline
210
0.0
220
0.0
230
1.0
 70
    11
 71
     3
 72
    20
 73
    16
 74
     0
 42
0.0000000001
 43
0.0000000001
 40
0.0
 40
0.0
 40
0.0
 40
0.0
 40
0.25
 40
0.25
 40
0.25
 40
0.25
 40
0.5
 40
0.5
 40
0.5
 40
0.5
 40
0.75
 40
0.75
 40
0.75
 40
0.75
 40
1.0
 40
1.0
 40
1.0
 40
1.0
 10
-5.62521
 20
10.76618
 30
0.0
 10
-5.51477
 20
10.76618
 30
0.0
 10
-5.42521
 20
10.67662
 30
0.0
 10
-5.42521
 20
10.56618
 30
0.0
 10
-5.42521
 20
10.56618
 30
0.0
 10
-5.42521
 20
10.45574
 30
0.0
 10
-5.51477
 20
10.36618
 30
0.0
 10
-5.62521
 20
10.36618
 30
0.0
 10
-5.62521
 20
10.36618
 30
0.0
 10
-5.73565
 20
10.36618
 30
0.0
 10
-5.82521
 20
10.45574
 30
0.0
 10
-5.82521
 20
10.56618
 30
0.0
 10
-5.82521
 20
10.56618
 30
0.0
 10
-5.82521
 20
10.67662
 30
0.0
 10
-5.73565
 20
10.76618
 30
0.0
 10
-5.62521
 20
10.76618
 30
0.0
  0
SPLINE
  5
83
330
1F
100
AcDbEntity
  8
Warstwa 1
 62
   250
100
AcDbSpline
210
0.0
220
0.0
230
1.0
 70
    11
 71
     3
 72
    28
 73
    24
 74
     0
 42
0.0000000001
 43
0.0000000001
 40
0.0
 40
0.0
 40
0.0
 40
0.0
 40
0.1666666666666667
 40
0.1666666666666667
 40
0.1666666666666667
 40
0.1666666666666667
 40
0.3333333333333333
 40
0.3333333333333333
 40
0.3333333333333333
 40
0.3333333333333333
 40
0.5
 40
0.5
 40
0.5
 40
0.5
 40
0.6666666666666666
 40
0.6666666666666666
 40
0.6666666666666666
 40
0.6666666666666666
 40
0.8333333333333333
 40
0.8333333333333333
 40
0.8333333333333333
 40
0.8333333333333333
 40
1.0
 40
1.0
 40
1.0
 40
1.0
 10
-3.02238
 20
12.06814
 30
0.0
 10
-3.02238
 20
11.9393
 30
0.0
 10
-3.12314
 20
11.83481
 30
0.0
 10
-3.24738
 20
11.83481
 30
0.0
 10
-3.24738
 20
11.83481
 30
0.0
 10
-3.37162
 20
11.83481
 30
0.0
 10
-3.47238
 20
11.9393
 30
0.0
 10
-3.47238
 20
12.06814
 30
0.0
 10
-3.47238
 20
12.06814
 30
0.0
 10
-3.47238
 20
12.06814
 30
0.0
 10
-3.47238
 20
12.30148
 30
0.0
 10
-3.47238
 20
12.30148
 30
0.0
 10
-3.47238
 20
12.30148
 30
0.0
 10
-3.47238
 20
12.43032
 30
0.0
 10
-3.37162
 20
12.53481
 30
0.0
 10
-3.24738
 20
12.53481
 30
0.0
 10
-3.24738
 20
12.53481
 30
0.0
 10
-3.12314
 20
12.53481
 30
0.0
 10
-3.02238
 20
12.43032
 30
0.0
 10
-3.02238
 20
12.30148
 30
0.0
 10
-3.02238
 20
12.30148
 30
0.0
 10
-3.02238
 20
12.30148
 30
0.0
 10
-3.02238
 20
12.06814
 30
0.0
 10
-3.02238
 20
12.06814
 30
0.0
  0
SPLINE
  5
84
330
1F
100
AcDbEntity
  8
Warstwa 1
 62
   250
100
AcDbSpline
210
0.0
220
0.0
230
1.0
 70
    11
 71
     3
 72
    28
 73
    24
 74
     0
 42
0.0000000001
 43
0.0000000001
 40
0.0
 40
0.0
 40
0.0
 40
0.0
 40
0.1666666666666667
 40
0.1666666666666667
 40
0.1666666666666667
 40
0.1666666666666667
 40
0.3333333333333333
 40
0.3333333333333333
 40
0.3333333333333333
 40
0.3333333333333333
 40
0.5
 40
0.5
 40
0.5
 40
0.5
 40
0.6666666666666666
 40
0.6666666666666666
 40
0.6666666666666666
 40
0.6666666666666666
 40
0.8333333333333333
 40
0.8333333333333333
 40
0.8333333333333333
 40
0.8333333333333333
 40
1.0
 40
1.0
 40
1.0
 40
1.0
 10
1.41464
 20
12.06814
 30
0.0
 10
1.41464
 20
11.9393
 30
0.0
 10
1.31388
 20
11.83481
 30
0.0
 10
1.18964
 20
11.83481
 30
0.0
 10
1.18964
 20
11.83481
 30
0.0
 10
1.0654
 20
11.83481
 30
0.0
 10
0.96464
 20
11.9393
 30
0.0
 10
0.96464
 20
12.06814
 30
0.0
 10
0.96464
 20
12.06814
 30
0.0
 10
0.96464
 20
12.06814
 30
0.0
 10
0.96464
 20
12.30148
 30
0.0
 10
0.96464
 20
12.30148
 30
0.0
 10
0.96464
 20
12.30148
 30
0.0
 10
0.96464
 20
12.43032
 30
0.0
 10
1.0654
 20
12.53481
 30
0.0
 10
1.18964
 20
12.53481
 30
0.0
 10
1.18964
 20
12.53481
 30
0.0
 10
1.31388
 20
12.53481
 30
0.0
 10
1.41464
 20
12.43032
 30
0.0
 10
1.41464
 20
12.30148
 30
0.0
 10
1.41464
 20
12.30148
 30
0.0
 10
1.41464
 20
12.30148
 30
0.0
 10
1.41464
 20
12.06814
 30
0.0
 10
1.41464
 20
12.06814
 30
0.0
  0
SPLINE
  5
85
330
1F
100
AcDbEntity
  8
Warstwa 1
 62
   250
100
AcDbSpline
210
0.0
220
0.0
230
1.0
 70
    11
 71
     3
 72
    20
 73
    16
 74
     0
 42
0.0000000001
 43
0.0000000001
 40
0.0
 40
0.0
 40
0.0
 40
0.0
 40
0.25
 40
0.25
 40
0.25
 40
0.25
 40
0.5
 40
0.5
 40
0.5
 40
0.5
 40
0.75
 40
0.75
 40
0.75
 40
0.75
 40
1.0
 40
1.0
 40
1.0
 40
1.0
 10
3.56479
 20
10.76618
 30
0.0
 10
3.45435
 20
10.76618
 30
0.0
 10
3.36479
 20
10.67662
 30
0.0
 10
3.36479
 20
10.56618
 30
0.0
 10
3.36479
 20
10.56618
 30
0.0
 10
3.36479
 20
10.45574
 30
0.0
 10
3.45435
 20
10.36618
 30
0.0
 10
3.56479
 20
10.36618
 30
0.0
 10
3.56479
 20
10.36618
 30
0.0
 10
3.67523
 20
10.36618
 30
0.0
 10
3.76479
 20
10.45574
 30
0.0
 10
3.76479
 20
10.56618
 30
0.0
 10
3.76479
 20
10.56618
 30
0.0
 10
3.76479
 20
10.67662
 30
0.0
 10
3.67523
 20
10.76618
 30
0.0
 10
3.56479
 20
10.76618
 30
0.0
  0
SPLINE
  5
86
330
1F
100
AcDbEntity
  8
Warstwa 1
 62
   250
100
AcDbSpline
210
0.0
220
0.0
230
1.0
 70
    11
 71
     3
 72
    84
 73
    80
 74
     0
 42
0.0000000001
 43
0.0000000001
 40
0.0
 40
0.0
 40
0.0
 40
0.0
 40
0.05
 40
0.05
 40
0.05
 40
0.05
 40
0.1
 40
0.1
 40
0.1
 40
0.1
 40
0.15
 40
0.15
 40
0.15
 40
0.15
 40
0.2
 40
0.2
 40
0.2
 40
0.2
 40
0.25
 40
0.25
 40
0.25
 40
0.25
 40
0.3
 40
0.3
 40
0.3
 40
0.3
 40
0.35
 40
0.35
 40
0.35
 40
0.35
 40
0.4
 40
0.4
 40
0.4
 40
0.4
 40
0.45
 40
0.45
 40
0.45
 40
0.45
 40
0.4999999999999999
 40
0.4999999999999999
 40
0.4999999999999999
 40
0.4999999999999999
 40
0.5499999999999999
 40
0.5499999999999999
 40
0.5499999999999999
 40
0.5499999999999999
 40
0.6
 40
0.6
 40
0.6
 40
0.6
 40
0.65
 40
0.65
 40
0.65
 40
0.65
 40
0.7000000000000001
 40
0.7000000000000001
 40
0.7000000000000001
 40
0.7000000000000001
 40
0.7500000000000001
 40
0.7500000000000001
 40
0.7500000000000001
 40
0.7500000000000001
 40
0.8000000000000002
 40
0.8000000000000002
 40
0.8000000000000002
 40
0.8000000000000002
 40
0.8500000000000002
 40
0.8500000000000002
 40
0.8500000000000002
 40
0.8500000000000002
 40
0.9000000000000002
 40
0.9000000000000002
 40
0.9000000000000002
 40
0.9000000000000002
 40
0.9500000000000003
 40
0.9500000000000003
 40
0.9500000000000003
 40
0.9500000000000003
 40
1.0
 40
1.0
 40
1.0
 40
1.0
 10
-6.02804
 20
9.67522
 30
0.0
 10
-6.02804
 20
9.67522
 30
0.0
 10
-3.68116
 20
11.53481
 30
0.0
 10
-3.68116
 20
11.53481
 30
0.0
 10
-3.68116
 20
11.53481
 30
0.0
 10
-3.68116
 20
11.53481
 30
0.0
 10
-2.90689
 20
11.70024
 30
0.0
 10
-2.90689
 20
11.70024
 30
0.0
 10
-2.90689
 20
11.70024
 30
0.0
 10
-2.90689
 20
11.70024
 30
0.0
 10
-2.33644
 20
12.92071
 30
0.0
 10
-2.33644
 20
12.92071
 30
0.0
 10
-2.33644
 20
12.92071
 30
0.0
 10
-2.33644
 20
12.92071
 30
0.0
 10
0.28004
 20
12.92071
 30
0.0
 10
0.28004
 20
12.92071
 30
0.0
 10
0.28004
 20
12.92071
 30
0.0
 10
0.28004
 20
12.92071
 30
0.0
 10
0.85084
 20
11.70024
 30
0.0
 10
0.85084
 20
11.70024
 30
0.0
 10
0.85084
 20
11.70024
 30
0.0
 10
0.85084
 20
11.70024
 30
0.0
 10
1.62508
 20
11.53481
 30
0.0
 10
1.62508
 20
11.53481
 30
0.0
 10
1.62508
 20
11.53481
 30
0.0
 10
1.62508
 20
11.53481
 30
0.0
 10
3.97196
 20
9.67536
 30
0.0
 10
3.97196
 20
9.67536
 30
0.0
 10
3.97196
 20
9.67536
 30
0.0
 10
3.97196
 20
9.67536
 30
0.0
 10
3.97196
 20
6.26645
 30
0.0
 10
3.97196
 20
6.26645
 30
0.0
 10
3.97196
 20
6.26645
 30
0.0
 10
3.97196
 20
6.26645
 30
0.0
 10
3.22312
 20
5.79595
 30
0.0
 10
3.22312
 20
5.79595
 30
0.0
 10
3.22312
 20
5.79595
 30
0.0
 10
3.22312
 20
5.79595
 30
0.0
 10
3.22196
 20
4.8733
 30
0.0
 10
3.22196
 20
4.8733
 30
0.0
 10
3.22196
 20
4.8733
 30
0.0
 10
3.22196
 20
4.8733
 30
0.0
 10
2.06548
 20
4.07115
 30
0.0
 10
2.06548
 20
4.07115
 30
0.0
 10
2.06548
 20
4.07115
 30
0.0
 10
2.06548
 20
4.07115
 30
0.0
 10
0.73698
 20
4.07115
 30
0.0
 10
0.73698
 20
4.07115
 30
0.0
 10
0.73698
 20
4.07115
 30
0.0
 10
0.73698
 20
4.07115
 30
0.0
 10
0.14047
 20
3.47565
 30
0.0
 10
0.14047
 20
3.47565
 30
0.0
 10
0.14047
 20
3.47565
 30
0.0
 10
0.14047
 20
3.47565
 30
0.0
 10
-2.19655
 20
3.47565
 30
0.0
 10
-2.19655
 20
3.47565
 30
0.0
 10
-2.19655
 20
3.47565
 30
0.0
 10
-2.19655
 20
3.47565
 30
0.0
 10
-2.79448
 20
4.07115
 30
0.0
 10
-2.79448
 20
4.07115
 30
0.0
 10
-2.79448
 20
4.07115
 30
0.0
 10
-2.79448
 20
4.07115
 30
0.0
 10
-4.12332
 20
4.07115
 30
0.0
 10
-4.12332
 20
4.07115
 30
0.0
 10
-4.12332
 20
4.07115
 30
0.0
 10
-4.12332
 20
4.07115
 30
0.0
 10
-5.28252
 20
4.8733
 30
0.0
 10
-5.28252
 20
4.8733
 30
0.0
 10
-5.28252
 20
4.8733
 30
0.0
 10
-5.28252
 20
4.8733
 30
0.0
 10
-5.28106
 20
5.79595
 30
0.0
 10
-5.28106
 20
5.79595
 30
0.0
 10
-5.28106
 20
5.79595
 30
0.0
 10
-5.28106
 20
5.79595
 30
0.0
 10
-6.02804
 20
6.26645
 30
0.0
 10
-6.02804
 20
6.26645
 30
0.0
 10
-6.02804
 20
6.26645
 30
0.0
 10
-6.02804
 20
6.26645
 30
0.0
 10
-6.02804
 20
9.67522
 30
0.0
 10
-6.02804
 20
9.67522
 30
0.0
  0
SPLINE
  5
87
330
1F
100
AcDbEntity
  8
Warstwa 1
 62
   250
100
AcDbSpline
210
0.0
220
0.0
230
1.0
 70
    11
 71
     3
 72
    36
 73
    32
 74
     0
 42
0.0000000001
 43
0.0000000001
 40
0.0
 40
0.0
 40
0.0
 40
0.0
 40
0.125
 40
0.125
 40
0.125
 40
0.125
 40
0.25
 40
0.25
 40
0.25
 40
0.25
 40
0.375
 40
0.375
 40
0.375
 40
0.375
 40
0.5
 40
0.5
 40
0.5
 40
0.5
 40
0.625
 40
0.625
 40
0.625
 40
0.625
 40
0.75
 40
0.75
 40
0.75
 40
0.75
 40
0.875
 40
0.875
 40
0.875
 40
0.875
 40
1.0
 40
1.0
 40
1.0
 40
1.0
 10
-2.42225
 20
4.48253
 30
0.0
 10
-2.42225
 20
4.48253
 30
0.0
 10
-2.51306
 20
4.48253
 30
0.0
 10
-2.51306
 20
4.48253
 30
0.0
 10
-2.51306
 20
4.48253
 30
0.0
 10
-2.51306
 20
4.48253
 30
0.0
 10
-2.51306
 20
4.82493
 30
0.0
 10
-2.51306
 20
4.82493
 30
0.0
 10
-2.51306
 20
4.82493
 30
0.0
 10
-2.54627
 20
4.79381
 30
0.0
 10
-2.58534
 20
4.77086
 30
0.0
 10
-2.63036
 20
4.75608
 30
0.0
 10
-2.63036
 20
4.75608
 30
0.0
 10
-2.63036
 20
4.75608
 30
0.0
 10
-2.63036
 20
4.8385
 30
0.0
 10
-2.63036
 20
4.8385
 30
0.0
 10
-2.63036
 20
4.8385
 30
0.0
 10
-2.60674
 20
4.84623
 30
0.0
 10
-2.58092
 20
4.8609
 30
0.0
 10
-2.55311
 20
4.88253
 30
0.0
 10
-2.55311
 20
4.88253
 30
0.0
 10
-2.52531
 20
4.90427
 30
0.0
 10
-2.50622
 20
4.92954
 30
0.0
 10
-2.49596
 20
4.95845
 30
0.0
 10
-2.49596
 20
4.95845
 30
0.0
 10
-2.49596
 20
4.95845
 30
0.0
 10
-2.42225
 20
4.95845
 30
0.0
 10
-2.42225
 20
4.95845
 30
0.0
 10
-2.42225
 20
4.95845
 30
0.0
 10
-2.42225
 20
4.95845
 30
0.0
 10
-2.42225
 20
4.48253
 30
0.0
 10
-2.42225
 20
4.48253
 30
0.0
  0
SPLINE
  5
88
330
1F
100
AcDbEntity
  8
Warstwa 1
 62
   250
100
AcDbSpline
210
0.0
220
0.0
230
1.0
 70
    11
 71
     3
 72
    36
 73
    32
 74
     0
 42
0.0000000001
 43
0.0000000001
 40
0.0
 40
0.0
 40
0.0
 40
0.0
 40
0.125
 40
0.125
 40
0.125
 40
0.125
 40
0.25
 40
0.25
 40
0.25
 40
0.25
 40
0.375
 40
0.375
 40
0.375
 40
0.375
 40
0.5
 40
0.5
 40
0.5
 40
0.5
 40
0.625
 40
0.625
 40
0.625
 40
0.625
 40
0.75
 40
0.75
 40
0.75
 40
0.75
 40
0.875
 40
0.875
 40
0.875
 40
0.875
 40
1.0
 40
1.0
 40
1.0
 40
1.0
 10
-2.09055
 20
4.48253
 30
0.0
 10
-2.09055
 20
4.48253
 30
0.0
 10
-2.18136
 20
4.48253
 30
0.0
 10
-2.18136
 20
4.48253
 30
0.0
 10
-2.18136
 20
4.48253
 30
0.0
 10
-2.18136
 20
4.48253
 30
0.0
 10
-2.18136
 20
4.82493
 30
0.0
 10
-2.18136
 20
4.82493
 30
0.0
 10
-2.18136
 20
4.82493
 30
0.0
 10
-2.21457
 20
4.79381
 30
0.0
 10
-2.25364
 20
4.77086
 30
0.0
 10
-2.29866
 20
4.75608
 30
0.0
 10
-2.29866
 20
4.75608
 30
0.0
 10
-2.29866
 20
4.75608
 30
0.0
 10
-2.29866
 20
4.8385
 30
0.0
 10
-2.29866
 20
4.8385
 30
0.0
 10
-2.29866
 20
4.8385
 30
0.0
 10
-2.27504
 20
4.84623
 30
0.0
 10
-2.24922
 20
4.8609
 30
0.0
 10
-2.22141
 20
4.88253
 30
0.0
 10
-2.22141
 20
4.88253
 30
0.0
 10
-2.19361
 20
4.90427
 30
0.0
 10
-2.17452
 20
4.92954
 30
0.0
 10
-2.16426
 20
4.95845
 30
0.0
 10
-2.16426
 20
4.95845
 30
0.0
 10
-2.16426
 20
4.95845
 30
0.0
 10
-2.09055
 20
4.95845
 30
0.0
 10
-2.09055
 20
4.95845
 30
0.0
 10
-2.09055
 20
4.95845
 30
0.0
 10
-2.09055
 20
4.95845
 30
0.0
 10
-2.09055
 20
4.48253
 30
0.0
 10
-2.09055
 20
4.48253
 30
0.0
  0
SPLINE
  5
89
330
1F
100
AcDbEntity
  8
Warstwa 1
 62
   250
100
AcDbSpline
210
0.0
220
0.0
230
1.0
 70
    11
 71
     3
 72
    36
 73
    32
 74
     0
 42
0.0000000001
 43
0.0000000001
 40
0.0
 40
0.0
 40
0.0
 40
0.0
 40
0.125
 40
0.125
 40
0.125
 40
0.125
 40
0.25
 40
0.25
 40
0.25
 40
0.25
 40
0.375
 40
0.375
 40
0.375
 40
0.375
 40
0.5
 40
0.5
 40
0.5
 40
0.5
 40
0.625
 40
0.625
 40
0.625
 40
0.625
 40
0.75
 40
0.75
 40
0.75
 40
0.75
 40
0.875
 40
0.875
 40
0.875
 40
0.875
 40
1.0
 40
1.0
 40
1.0
 40
1.0
 10
-1.80122
 20
4.95845
 30
0.0
 10
-1.75521
 20
4.95845
 30
0.0
 10
-1.71935
 20
4.94201
 30
0.0
 10
-1.69353
 20
4.90923
 30
0.0
 10
-1.69353
 20
4.90923
 30
0.0
 10
-1.66274
 20
4.8705
 30
0.0
 10
-1.64729
 20
4.80617
 30
0.0
 10
-1.64729
 20
4.71624
 30
0.0
 10
-1.64729
 20
4.71624
 30
0.0
 10
-1.64729
 20
4.62664
 30
0.0
 10
-1.66285
 20
4.5622
 30
0.0
 10
-1.69386
 20
4.52292
 30
0.0
 10
-1.69386
 20
4.52292
 30
0.0
 10
-1.71946
 20
4.49059
 30
0.0
 10
-1.75521
 20
4.47447
 30
0.0
 10
-1.80122
 20
4.47447
 30
0.0
 10
-1.80122
 20
4.47447
 30
0.0
 10
-1.84724
 20
4.47447
 30
0.0
 10
-1.88442
 20
4.49213
 30
0.0
 10
-1.91267
 20
4.52766
 30
0.0
 10
-1.91267
 20
4.52766
 30
0.0
 10
-1.94092
 20
4.56308
 30
0.0
 10
-1.95504
 20
4.62631
 30
0.0
 10
-1.95504
 20
4.71723
 30
0.0
 10
-1.95504
 20
4.71723
 30
0.0
 10
-1.95504
 20
4.8065
 30
0.0
 10
-1.93948
 20
4.87072
 30
0.0
 10
-1.90848
 20
4.9099
 30
0.0
 10
-1.90848
 20
4.9099
 30
0.0
 10
-1.88288
 20
4.94223
 30
0.0
 10
-1.84713
 20
4.95845
 30
0.0
 10
-1.80122
 20
4.95845
 30
0.0
  0
SPLINE
  5
8A
330
1F
100
AcDbEntity
  8
Warstwa 1
 62
   250
100
AcDbSpline
210
0.0
220
0.0
230
1.0
 70
    11
 71
     3
 72
    52
 73
    48
 74
     0
 42
0.0000000001
 43
0.0000000001
 40
0.0
 40
0.0
 40
0.0
 40
0.0
 40
0.0833333333333333
 40
0.0833333333333333
 40
0.0833333333333333
 40
0.0833333333333333
 40
0.1666666666666667
 40
0.1666666666666667
 40
0.1666666666666667
 40
0.1666666666666667
 40
0.25
 40
0.25
 40
0.25
 40
0.25
 40
0.3333333333333333
 40
0.3333333333333333
 40
0.3333333333333333
 40
0.3333333333333333
 40
0.4166666666666666
 40
0.4166666666666666
 40
0.4166666666666666
 40
0.4166666666666666
 40
0.4999999999999999
 40
0.4999999999999999
 40
0.4999999999999999
 40
0.4999999999999999
 40
0.5833333333333333
 40
0.5833333333333333
 40
0.5833333333333333
 40
0.5833333333333333
 40
0.6666666666666666
 40
0.6666666666666666
 40
0.6666666666666666
 40
0.6666666666666666
 40
0.75
 40
0.75
 40
0.75
 40
0.75
 40
0.8333333333333334
 40
0.8333333333333334
 40
0.8333333333333334
 40
0.8333333333333334
 40
0.9166666666666667
 40
0.9166666666666667
 40
0.9166666666666667
 40
0.9166666666666667
 40
1.0
 40
1.0
 40
1.0
 40
1.0
 10
-1.80122
 20
4.88308
 30
0.0
 10
-1.81215
 20
4.88308
 30
0.0
 10
-1.82197
 20
4.87955
 30
0.0
 10
-1.83057
 20
4.8726
 30
0.0
 10
-1.83057
 20
4.8726
 30
0.0
 10
-1.83918
 20
4.86554
 30
0.0
 10
-1.84591
 20
4.85296
 30
0.0
 10
-1.85066
 20
4.83486
 30
0.0
 10
-1.85066
 20
4.83486
 30
0.0
 10
-1.85684
 20
4.81136
 30
0.0
 10
-1.86004
 20
4.77185
 30
0.0
 10
-1.86004
 20
4.71624
 30
0.0
 10
-1.86004
 20
4.71624
 30
0.0
 10
-1.86004
 20
4.66063
 30
0.0
 10
-1.85717
 20
4.62245
 30
0.0
 10
-1.85165
 20
4.6017
 30
0.0
 10
-1.85165
 20
4.6017
 30
0.0
 10
-1.84602
 20
4.58085
 30
0.0
 10
-1.83896
 20
4.56705
 30
0.0
 10
-1.83046
 20
4.5601
 30
0.0
 10
-1.83046
 20
4.5601
 30
0.0
 10
-1.82186
 20
4.55326
 30
0.0
 10
-1.81215
 20
4.54973
 30
0.0
 10
-1.80122
 20
4.54973
 30
0.0
 10
-1.80122
 20
4.54973
 30
0.0
 10
-1.79019
 20
4.54973
 30
0.0
 10
-1.78037
 20
4.55326
 30
0.0
 10
-1.77176
 20
4.56032
 30
0.0
 10
-1.77176
 20
4.56032
 30
0.0
 10
-1.76315
 20
4.56727
 30
0.0
 10
-1.75642
 20
4.57985
 30
0.0
 10
-1.75168
 20
4.59795
 30
0.0
 10
-1.75168
 20
4.59795
 30
0.0
 10
-1.7455
 20
4.62123
 30
0.0
 10
-1.7423
 20
4.66063
 30
0.0
 10
-1.7423
 20
4.71624
 30
0.0
 10
-1.7423
 20
4.71624
 30
0.0
 10
-1.7423
 20
4.77185
 30
0.0
 10
-1.74517
 20
4.81003
 30
0.0
 10
-1.75068
 20
4.83089
 30
0.0
 10
-1.75068
 20
4.83089
 30
0.0
 10
-1.75631
 20
4.85163
 30
0.0
 10
-1.76337
 20
4.86554
 30
0.0
 10
-1.77187
 20
4.8726
 30
0.0
 10
-1.77187
 20
4.8726
 30
0.0
 10
-1.78048
 20
4.87955
 30
0.0
 10
-1.79019
 20
4.88308
 30
0.0
 10
-1.80122
 20
4.88308
 30
0.0
  0
SPLINE
  5
8B
330
1F
100
AcDbEntity
  8
Warstwa 1
 62
   250
100
AcDbSpline
210
0.0
220
0.0
230
1.0
 70
    11
 71
     3
 72
    52
 73
    48
 74
     0
 42
0.0000000001
 43
0.0000000001
 40
0.0
 40
0.0
 40
0.0
 40
0.0
 40
0.0833333333333333
 40
0.0833333333333333
 40
0.0833333333333333
 40
0.0833333333333333
 40
0.1666666666666667
 40
0.1666666666666667
 40
0.1666666666666667
 40
0.1666666666666667
 40
0.25
 40
0.25
 40
0.25
 40
0.25
 40
0.3333333333333333
 40
0.3333333333333333
 40
0.3333333333333333
 40
0.3333333333333333
 40
0.4166666666666666
 40
0.4166666666666666
 40
0.4166666666666666
 40
0.4166666666666666
 40
0.4999999999999999
 40
0.4999999999999999
 40
0.4999999999999999
 40
0.4999999999999999
 40
0.5833333333333333
 40
0.5833333333333333
 40
0.5833333333333333
 40
0.5833333333333333
 40
0.6666666666666666
 40
0.6666666666666666
 40
0.6666666666666666
 40
0.6666666666666666
 40
0.75
 40
0.75
 40
0.75
 40
0.75
 40
0.8333333333333334
 40
0.8333333333333334
 40
0.8333333333333334
 40
0.8333333333333334
 40
0.9166666666666667
 40
0.9166666666666667
 40
0.9166666666666667
 40
0.9166666666666667
 40
1.0
 40
1.0
 40
1.0
 40
1.0
 10
-1.61077
 20
4.48253
 30
0.0
 10
-1.61077
 20
4.48253
 30
0.0
 10
-1.48696
 20
4.65941
 30
0.0
 10
-1.48696
 20
4.65941
 30
0.0
 10
-1.48696
 20
4.65941
 30
0.0
 10
-1.48696
 20
4.65941
 30
0.0
 10
-1.60558
 20
4.82581
 30
0.0
 10
-1.60558
 20
4.82581
 30
0.0
 10
-1.60558
 20
4.82581
 30
0.0
 10
-1.60558
 20
4.82581
 30
0.0
 10
-1.49468
 20
4.82581
 30
0.0
 10
-1.49468
 20
4.82581
 30
0.0
 10
-1.49468
 20
4.82581
 30
0.0
 10
-1.49468
 20
4.82581
 30
0.0
 10
-1.43388
 20
4.73147
 30
0.0
 10
-1.43388
 20
4.73147
 30
0.0
 10
-1.43388
 20
4.73147
 30
0.0
 10
-1.43388
 20
4.73147
 30
0.0
 10
-1.36988
 20
4.82581
 30
0.0
 10
-1.36988
 20
4.82581
 30
0.0
 10
-1.36988
 20
4.82581
 30
0.0
 10
-1.36988
 20
4.82581
 30
0.0
 10
-1.26318
 20
4.82581
 30
0.0
 10
-1.26318
 20
4.82581
 30
0.0
 10
-1.26318
 20
4.82581
 30
0.0
 10
-1.26318
 20
4.82581
 30
0.0
 10
-1.3796
 20
4.66328
 30
0.0
 10
-1.3796
 20
4.66328
 30
0.0
 10
-1.3796
 20
4.66328
 30
0.0
 10
-1.3796
 20
4.66328
 30
0.0
 10
-1.25259
 20
4.48253
 30
0.0
 10
-1.25259
 20
4.48253
 30
0.0
 10
-1.25259
 20
4.48253
 30
0.0
 10
-1.25259
 20
4.48253
 30
0.0
 10
-1.36404
 20
4.48253
 30
0.0
 10
-1.36404
 20
4.48253
 30
0.0
 10
-1.36404
 20
4.48253
 30
0.0
 10
-1.36404
 20
4.48253
 30
0.0
 10
-1.43388
 20
4.5889
 30
0.0
 10
-1.43388
 20
4.5889
 30
0.0
 10
-1.43388
 20
4.5889
 30
0.0
 10
-1.43388
 20
4.5889
 30
0.0
 10
-1.5044
 20
4.48253
 30
0.0
 10
-1.5044
 20
4.48253
 30
0.0
 10
-1.5044
 20
4.48253
 30
0.0
 10
-1.5044
 20
4.48253
 30
0.0
 10
-1.61077
 20
4.48253
 30
0.0
 10
-1.61077
 20
4.48253
 30
0.0
  0
SPLINE
  5
8C
330
1F
100
AcDbEntity
  8
Warstwa 1
 62
   250
100
AcDbSpline
210
0.0
220
0.0
230
1.0
 70
    11
 71
     3
 72
    36
 73
    32
 74
     0
 42
0.0000000001
 43
0.0000000001
 40
0.0
 40
0.0
 40
0.0
 40
0.0
 40
0.125
 40
0.125
 40
0.125
 40
0.125
 40
0.25
 40
0.25
 40
0.25
 40
0.25
 40
0.375
 40
0.375
 40
0.375
 40
0.375
 40
0.5
 40
0.5
 40
0.5
 40
0.5
 40
0.625
 40
0.625
 40
0.625
 40
0.625
 40
0.75
 40
0.75
 40
0.75
 40
0.75
 40
0.875
 40
0.875
 40
0.875
 40
0.875
 40
1.0
 40
1.0
 40
1.0
 40
1.0
 10
-0.98589
 20
4.48253
 30
0.0
 10
-0.98589
 20
4.48253
 30
0.0
 10
-1.0767
 20
4.48253
 30
0.0
 10
-1.0767
 20
4.48253
 30
0.0
 10
-1.0767
 20
4.48253
 30
0.0
 10
-1.0767
 20
4.48253
 30
0.0
 10
-1.0767
 20
4.82493
 30
0.0
 10
-1.0767
 20
4.82493
 30
0.0
 10
-1.0767
 20
4.82493
 30
0.0
 10
-1.10991
 20
4.79381
 30
0.0
 10
-1.14898
 20
4.77086
 30
0.0
 10
-1.194
 20
4.75608
 30
0.0
 10
-1.194
 20
4.75608
 30
0.0
 10
-1.194
 20
4.75608
 30
0.0
 10
-1.194
 20
4.8385
 30
0.0
 10
-1.194
 20
4.8385
 30
0.0
 10
-1.194
 20
4.8385
 30
0.0
 10
-1.17038
 20
4.84623
 30
0.0
 10
-1.14456
 20
4.8609
 30
0.0
 10
-1.11675
 20
4.88253
 30
0.0
 10
-1.11675
 20
4.88253
 30
0.0
 10
-1.08895
 20
4.90427
 30
0.0
 10
-1.06986
 20
4.92954
 30
0.0
 10
-1.0596
 20
4.95845
 30
0.0
 10
-1.0596
 20
4.95845
 30
0.0
 10
-1.0596
 20
4.95845
 30
0.0
 10
-0.98589
 20
4.95845
 30
0.0
 10
-0.98589
 20
4.95845
 30
0.0
 10
-0.98589
 20
4.95845
 30
0.0
 10
-0.98589
 20
4.95845
 30
0.0
 10
-0.98589
 20
4.48253
 30
0.0
 10
-0.98589
 20
4.48253
 30
0.0
  0
SPLINE
  5
8D
330
1F
100
AcDbEntity
  8
Warstwa 1
 62
   250
100
AcDbSpline
210
0.0
220
0.0
230
1.0
 70
    11
 71
     3
 72
    36
 73
    32
 74
     0
 42
0.0000000001
 43
0.0000000001
 40
0.0
 40
0.0
 40
0.0
 40
0.0
 40
0.125
 40
0.125
 40
0.125
 40
0.125
 40
0.25
 40
0.25
 40
0.25
 40
0.25
 40
0.375
 40
0.375
 40
0.375
 40
0.375
 40
0.5
 40
0.5
 40
0.5
 40
0.5
 40
0.625
 40
0.625
 40
0.625
 40
0.625
 40
0.75
 40
0.75
 40
0.75
 40
0.75
 40
0.875
 40
0.875
 40
0.875
 40
0.875
 40
1.0
 40
1.0
 40
1.0
 40
1.0
 10
-0.69656
 20
4.95845
 30
0.0
 10
-0.65055
 20
4.95845
 30
0.0
 10
-0.61469
 20
4.94201
 30
0.0
 10
-0.58887
 20
4.90923
 30
0.0
 10
-0.58887
 20
4.90923
 30
0.0
 10
-0.55808
 20
4.8705
 30
0.0
 10
-0.54263
 20
4.80617
 30
0.0
 10
-0.54263
 20
4.71624
 30
0.0
 10
-0.54263
 20
4.71624
 30
0.0
 10
-0.54263
 20
4.62664
 30
0.0
 10
-0.55819
 20
4.5622
 30
0.0
 10
-0.5892
 20
4.52292
 30
0.0
 10
-0.5892
 20
4.52292
 30
0.0
 10
-0.6148
 20
4.49059
 30
0.0
 10
-0.65055
 20
4.47447
 30
0.0
 10
-0.69656
 20
4.47447
 30
0.0
 10
-0.69656
 20
4.47447
 30
0.0
 10
-0.74258
 20
4.47447
 30
0.0
 10
-0.77976
 20
4.49213
 30
0.0
 10
-0.80801
 20
4.52766
 30
0.0
 10
-0.80801
 20
4.52766
 30
0.0
 10
-0.83626
 20
4.56308
 30
0.0
 10
-0.85038
 20
4.62631
 30
0.0
 10
-0.85038
 20
4.71723
 30
0.0
 10
-0.85038
 20
4.71723
 30
0.0
 10
-0.85038
 20
4.8065
 30
0.0
 10
-0.83482
 20
4.87072
 30
0.0
 10
-0.80382
 20
4.9099
 30
0.0
 10
-0.80382
 20
4.9099
 30
0.0
 10
-0.77822
 20
4.94223
 30
0.0
 10
-0.74247
 20
4.95845
 30
0.0
 10
-0.69656
 20
4.95845
 30
0.0
  0
SPLINE
  5
8E
330
1F
100
AcDbEntity
  8
Warstwa 1
 62
   250
100
AcDbSpline
210
0.0
220
0.0
230
1.0
 70
    11
 71
     3
 72
    52
 73
    48
 74
     0
 42
0.0000000001
 43
0.0000000001
 40
0.0
 40
0.0
 40
0.0
 40
0.0
 40
0.0833333333333333
 40
0.0833333333333333
 40
0.0833333333333333
 40
0.0833333333333333
 40
0.1666666666666667
 40
0.1666666666666667
 40
0.1666666666666667
 40
0.1666666666666667
 40
0.25
 40
0.25
 40
0.25
 40
0.25
 40
0.3333333333333333
 40
0.3333333333333333
 40
0.3333333333333333
 40
0.3333333333333333
 40
0.4166666666666666
 40
0.4166666666666666
 40
0.4166666666666666
 40
0.4166666666666666
 40
0.4999999999999999
 40
0.4999999999999999
 40
0.4999999999999999
 40
0.4999999999999999
 40
0.5833333333333333
 40
0.5833333333333333
 40
0.5833333333333333
 40
0.5833333333333333
 40
0.6666666666666666
 40
0.6666666666666666
 40
0.6666666666666666
 40
0.6666666666666666
 40
0.75
 40
0.75
 40
0.75
 40
0.75
 40
0.8333333333333334
 40
0.8333333333333334
 40
0.8333333333333334
 40
0.8333333333333334
 40
0.9166666666666667
 40
0.9166666666666667
 40
0.9166666666666667
 40
0.9166666666666667
 40
1.0
 40
1.0
 40
1.0
 40
1.0
 10
-0.69656
 20
4.88308
 30
0.0
 10
-0.70749
 20
4.88308
 30
0.0
 10
-0.71731
 20
4.87955
 30
0.0
 10
-0.72591
 20
4.8726
 30
0.0
 10
-0.72591
 20
4.8726
 30
0.0
 10
-0.73452
 20
4.86554
 30
0.0
 10
-0.74125
 20
4.85296
 30
0.0
 10
-0.746
 20
4.83486
 30
0.0
 10
-0.746
 20
4.83486
 30
0.0
 10
-0.75218
 20
4.81136
 30
0.0
 10
-0.75538
 20
4.77185
 30
0.0
 10
-0.75538
 20
4.71624
 30
0.0
 10
-0.75538
 20
4.71624
 30
0.0
 10
-0.75538
 20
4.66063
 30
0.0
 10
-0.75251
 20
4.62245
 30
0.0
 10
-0.74699
 20
4.6017
 30
0.0
 10
-0.74699
 20
4.6017
 30
0.0
 10
-0.74136
 20
4.58085
 30
0.0
 10
-0.7343
 20
4.56705
 30
0.0
 10
-0.7258
 20
4.5601
 30
0.0
 10
-0.7258
 20
4.5601
 30
0.0
 10
-0.7172
 20
4.55326
 30
0.0
 10
-0.70749
 20
4.54973
 30
0.0
 10
-0.69656
 20
4.54973
 30
0.0
 10
-0.69656
 20
4.54973
 30
0.0
 10
-0.68553
 20
4.54973
 30
0.0
 10
-0.67571
 20
4.55326
 30
0.0
 10
-0.6671
 20
4.56032
 30
0.0
 10
-0.6671
 20
4.56032
 30
0.0
 10
-0.65849
 20
4.56727
 30
0.0
 10
-0.65176
 20
4.57985
 30
0.0
 10
-0.64702
 20
4.59795
 30
0.0
 10
-0.64702
 20
4.59795
 30
0.0
 10
-0.64084
 20
4.62123
 30
0.0
 10
-0.63764
 20
4.66063
 30
0.0
 10
-0.63764
 20
4.71624
 30
0.0
 10
-0.63764
 20
4.71624
 30
0.0
 10
-0.63764
 20
4.77185
 30
0.0
 10
-0.64051
 20
4.81003
 30
0.0
 10
-0.64602
 20
4.83089
 30
0.0
 10
-0.64602
 20
4.83089
 30
0.0
 10
-0.65165
 20
4.85163
 30
0.0
 10
-0.65871
 20
4.86554
 30
0.0
 10
-0.66721
 20
4.8726
 30
0.0
 10
-0.66721
 20
4.8726
 30
0.0
 10
-0.67582
 20
4.87955
 30
0.0
 10
-0.68553
 20
4.88308
 30
0.0
 10
-0.69656
 20
4.88308
 30
0.0
  0
SPLINE
  5
8F
330
1F
100
AcDbEntity
  8
Warstwa 1
 62
   250
100
AcDbSpline
210
0.0
220
0.0
230
1.0
 70
    11
 71
     3
 72
    88
 73
    84
 74
     0
 42
0.0000000001
 43
0.0000000001
 40
0.0
 40
0.0
 40
0.0
 40
0.0
 40
0.0476190476190476
 40
0.0476190476190476
 40
0.0476190476190476
 40
0.0476190476190476
 40
0.0952380952380952
 40
0.0952380952380952
 40
0.0952380952380952
 40
0.0952380952380952
 40
0.1428571428571428
 40
0.1428571428571428
 40
0.1428571428571428
 40
0.1428571428571428
 40
0.1904761904761905
 40
0.1904761904761905
 40
0.1904761904761905
 40
0.1904761904761905
 40
0.2380952380952381
 40
0.2380952380952381
 40
0.2380952380952381
 40
0.2380952380952381
 40
0.2857142857142857
 40
0.2857142857142857
 40
0.2857142857142857
 40
0.2857142857142857
 40
0.3333333333333333
 40
0.3333333333333333
 40
0.3333333333333333
 40
0.3333333333333333
 40
0.3809523809523809
 40
0.3809523809523809
 40
0.3809523809523809
 40
0.3809523809523809
 40
0.4285714285714285
 40
0.4285714285714285
 40
0.4285714285714285
 40
0.4285714285714285
 40
0.4761904761904762
 40
0.4761904761904762
 40
0.4761904761904762
 40
0.4761904761904762
 40
0.5238095238095237
 40
0.5238095238095237
 40
0.5238095238095237
 40
0.5238095238095237
 40
0.5714285714285714
 40
0.5714285714285714
 40
0.5714285714285714
 40
0.5714285714285714
 40
0.6190476190476191
 40
0.6190476190476191
 40
0.6190476190476191
 40
0.6190476190476191
 40
0.6666666666666667
 40
0.6666666666666667
 40
0.6666666666666667
 40
0.6666666666666667
 40
0.7142857142857144
 40
0.7142857142857144
 40
0.7142857142857144
 40
0.7142857142857144
 40
0.7619047619047621
 40
0.7619047619047621
 40
0.7619047619047621
 40
0.7619047619047621
 40
0.8095238095238098
 40
0.8095238095238098
 40
0.8095238095238098
 40
0.8095238095238098
 40
0.8571428571428574
 40
0.8571428571428574
 40
0.8571428571428574
 40
0.8571428571428574
 40
0.9047619047619051
 40
0.9047619047619051
 40
0.9047619047619051
 40
0.9047619047619051
 40
0.9523809523809528
 40
0.9523809523809528
 40
0.9523809523809528
 40
0.9523809523809528
 40
1.0
 40
1.0
 40
1.0
 40
1.0
 10
-0.48051
 20
4.60446
 30
0.0
 10
-0.48051
 20
4.60446
 30
0.0
 10
-0.39002
 20
4.61373
 30
0.0
 10
-0.39002
 20
4.61373
 30
0.0
 10
-0.39002
 20
4.61373
 30
0.0
 10
-0.38749
 20
4.59332
 30
0.0
 10
-0.37976
 20
4.5771
 30
0.0
 10
-0.36707
 20
4.56518
 30
0.0
 10
-0.36707
 20
4.56518
 30
0.0
 10
-0.35438
 20
4.55315
 30
0.0
 10
-0.33971
 20
4.54719
 30
0.0
 10
-0.32316
 20
4.54719
 30
0.0
 10
-0.32316
 20
4.54719
 30
0.0
 10
-0.30418
 20
4.54719
 30
0.0
 10
-0.28807
 20
4.55492
 30
0.0
 10
-0.27494
 20
4.57025
 30
0.0
 10
-0.27494
 20
4.57025
 30
0.0
 10
-0.2618
 20
4.5857
 30
0.0
 10
-0.25518
 20
4.60899
 30
0.0
 10
-0.25518
 20
4.63999
 30
0.0
 10
-0.25518
 20
4.63999
 30
0.0
 10
-0.25518
 20
4.66901
 30
0.0
 10
-0.26169
 20
4.69086
 30
0.0
 10
-0.27482
 20
4.70543
 30
0.0
 10
-0.27482
 20
4.70543
 30
0.0
 10
-0.28785
 20
4.71999
 30
0.0
 10
-0.30484
 20
4.72728
 30
0.0
 10
-0.32569
 20
4.72728
 30
0.0
 10
-0.32569
 20
4.72728
 30
0.0
 10
-0.35174
 20
4.72728
 30
0.0
 10
-0.37513
 20
4.71569
 30
0.0
 10
-0.39587
 20
4.69263
 30
0.0
 10
-0.39587
 20
4.69263
 30
0.0
 10
-0.39587
 20
4.69263
 30
0.0
 10
-0.46958
 20
4.70333
 30
0.0
 10
-0.46958
 20
4.70333
 30
0.0
 10
-0.46958
 20
4.70333
 30
0.0
 10
-0.46958
 20
4.70333
 30
0.0
 10
-0.42302
 20
4.94995
 30
0.0
 10
-0.42302
 20
4.94995
 30
0.0
 10
-0.42302
 20
4.94995
 30
0.0
 10
-0.42302
 20
4.94995
 30
0.0
 10
-0.1828
 20
4.94995
 30
0.0
 10
-0.1828
 20
4.94995
 30
0.0
 10
-0.1828
 20
4.94995
 30
0.0
 10
-0.1828
 20
4.94995
 30
0.0
 10
-0.1828
 20
4.86499
 30
0.0
 10
-0.1828
 20
4.86499
 30
0.0
 10
-0.1828
 20
4.86499
 30
0.0
 10
-0.1828
 20
4.86499
 30
0.0
 10
-0.35416
 20
4.86499
 30
0.0
 10
-0.35416
 20
4.86499
 30
0.0
 10
-0.35416
 20
4.86499
 30
0.0
 10
-0.35416
 20
4.86499
 30
0.0
 10
-0.3684
 20
4.78443
 30
0.0
 10
-0.3684
 20
4.78443
 30
0.0
 10
-0.3684
 20
4.78443
 30
0.0
 10
-0.34809
 20
4.79459
 30
0.0
 10
-0.32746
 20
4.79966
 30
0.0
 10
-0.30627
 20
4.79966
 30
0.0
 10
-0.30627
 20
4.79966
 30
0.0
 10
-0.266
 20
4.79966
 30
0.0
 10
-0.23179
 20
4.78499
 30
0.0
 10
-0.20387
 20
4.75574
 30
0.0
 10
-0.20387
 20
4.75574
 30
0.0
 10
-0.17585
 20
4.72639
 30
0.0
 10
-0.16183
 20
4.68832
 30
0.0
 10
-0.16183
 20
4.64154
 30
0.0
 10
-0.16183
 20
4.64154
 30
0.0
 10
-0.16183
 20
4.60259
 30
0.0
 10
-0.17309
 20
4.56772
 30
0.0
 10
-0.19571
 20
4.53715
 30
0.0
 10
-0.19571
 20
4.53715
 30
0.0
 10
-0.2266
 20
4.49533
 30
0.0
 10
-0.26931
 20
4.47447
 30
0.0
 10
-0.32404
 20
4.47447
 30
0.0
 10
-0.32404
 20
4.47447
 30
0.0
 10
-0.36785
 20
4.47447
 30
0.0
 10
-0.40349
 20
4.48617
 30
0.0
 10
-0.43107
 20
4.50967
 30
0.0
 10
-0.43107
 20
4.50967
 30
0.0
 10
-0.45866
 20
4.53318
 30
0.0
 10
-0.47521
 20
4.56474
 30
0.0
 10
-0.48051
 20
4.60446
 30
0.0
  0
SPLINE
  5
90
330
1F
100
AcDbEntity
  8
Warstwa 1
 62
   250
100
AcDbSpline
210
0.0
220
0.0
230
1.0
 70
    11
 71
     3
 72
   124
 73
   120
 74
     0
 42
0.0000000001
 43
0.0000000001
 40
0.0
 40
0.0
 40
0.0
 40
0.0
 40
0.0333333333333333
 40
0.0333333333333333
 40
0.0333333333333333
 40
0.0333333333333333
 40
0.0666666666666667
 40
0.0666666666666667
 40
0.0666666666666667
 40
0.0666666666666667
 40
0.1
 40
0.1
 40
0.1
 40
0.1
 40
0.1333333333333333
 40
0.1333333333333333
 40
0.1333333333333333
 40
0.1333333333333333
 40
0.1666666666666667
 40
0.1666666666666667
 40
0.1666666666666667
 40
0.1666666666666667
 40
0.2
 40
0.2
 40
0.2
 40
0.2
 40
0.2333333333333333
 40
0.2333333333333333
 40
0.2333333333333333
 40
0.2333333333333333
 40
0.2666666666666667
 40
0.2666666666666667
 40
0.2666666666666667
 40
0.2666666666666667
 40
0.3
 40
0.3
 40
0.3
 40
0.3
 40
0.3333333333333333
 40
0.3333333333333333
 40
0.3333333333333333
 40
0.3333333333333333
 40
0.3666666666666666
 40
0.3666666666666666
 40
0.3666666666666666
 40
0.3666666666666666
 40
0.4
 40
0.4
 40
0.4
 40
0.4
 40
0.4333333333333333
 40
0.4333333333333333
 40
0.4333333333333333
 40
0.4333333333333333
 40
0.4666666666666666
 40
0.4666666666666666
 40
0.4666666666666666
 40
0.4666666666666666
 40
0.4999999999999999
 40
0.4999999999999999
 40
0.4999999999999999
 40
0.4999999999999999
 40
0.5333333333333333
 40
0.5333333333333333
 40
0.5333333333333333
 40
0.5333333333333333
 40
0.5666666666666667
 40
0.5666666666666667
 40
0.5666666666666667
 40
0.5666666666666667
 40
0.6
 40
0.6
 40
0.6
 40
0.6
 40
0.6333333333333333
 40
0.6333333333333333
 40
0.6333333333333333
 40
0.6333333333333333
 40
0.6666666666666666
 40
0.6666666666666666
 40
0.6666666666666666
 40
0.6666666666666666
 40
0.7
 40
0.7
 40
0.7
 40
0.7
 40
0.7333333333333333
 40
0.7333333333333333
 40
0.7333333333333333
 40
0.7333333333333333
 40
0.7666666666666666
 40
0.7666666666666666
 40
0.7666666666666666
 40
0.7666666666666666
 40
0.7999999999999999
 40
0.7999999999999999
 40
0.7999999999999999
 40
0.7999999999999999
 40
0.8333333333333333
 40
0.8333333333333333
 40
0.8333333333333333
 40
0.8333333333333333
 40
0.8666666666666666
 40
0.8666666666666666
 40
0.8666666666666666
 40
0.8666666666666666
 40
0.8999999999999999
 40
0.8999999999999999
 40
0.8999999999999999
 40
0.8999999999999999
 40
0.9333333333333332
 40
0.9333333333333332
 40
0.9333333333333332
 40
0.9333333333333332
 40
0.9666666666666666
 40
0.9666666666666666
 40
0.9666666666666666
 40
0.9666666666666666
 40
1.0
 40
1.0
 40
1.0
 40
1.0
 10
-0.10103
 20
4.82581
 30
0.0
 10
-0.10103
 20
4.82581
 30
0.0
 10
-0.01728
 20
4.82581
 30
0.0
 10
-0.01728
 20
4.82581
 30
0.0
 10
-0.01728
 20
4.82581
 30
0.0
 10
-0.01728
 20
4.82581
 30
0.0
 10
-0.01728
 20
4.77903
 30
0.0
 10
-0.01728
 20
4.77903
 30
0.0
 10
-0.01728
 20
4.77903
 30
0.0
 10
0.01262
 20
4.81544
 30
0.0
 10
0.04837
 20
4.83365
 30
0.0
 10
0.08975
 20
4.83365
 30
0.0
 10
0.08975
 20
4.83365
 30
0.0
 10
0.11171
 20
4.83365
 30
0.0
 10
0.1308
 20
4.82912
 30
0.0
 10
0.14691
 20
4.82008
 30
0.0
 10
0.14691
 20
4.82008
 30
0.0
 10
0.16313
 20
4.81103
 30
0.0
 10
0.17637
 20
4.79734
 30
0.0
 10
0.18675
 20
4.77903
 30
0.0
 10
0.18675
 20
4.77903
 30
0.0
 10
0.20175
 20
4.79734
 30
0.0
 10
0.21809
 20
4.81103
 30
0.0
 10
0.23552
 20
4.82008
 30
0.0
 10
0.23552
 20
4.82008
 30
0.0
 10
0.25295
 20
4.82912
 30
0.0
 10
0.2716
 20
4.83365
 30
0.0
 10
0.29146
 20
4.83365
 30
0.0
 10
0.29146
 20
4.83365
 30
0.0
 10
0.31662
 20
4.83365
 30
0.0
 10
0.33803
 20
4.82846
 30
0.0
 10
0.35546
 20
4.8182
 30
0.0
 10
0.35546
 20
4.8182
 30
0.0
 10
0.3729
 20
4.80805
 30
0.0
 10
0.38592
 20
4.79293
 30
0.0
 10
0.39453
 20
4.77318
 30
0.0
 10
0.39453
 20
4.77318
 30
0.0
 10
0.40082
 20
4.7585
 30
0.0
 10
0.40391
 20
4.73478
 30
0.0
 10
0.40391
 20
4.70201
 30
0.0
 10
0.40391
 20
4.70201
 30
0.0
 10
0.40391
 20
4.70201
 30
0.0
 10
0.40391
 20
4.48253
 30
0.0
 10
0.40391
 20
4.48253
 30
0.0
 10
0.40391
 20
4.48253
 30
0.0
 10
0.40391
 20
4.48253
 30
0.0
 10
0.31309
 20
4.48253
 30
0.0
 10
0.31309
 20
4.48253
 30
0.0
 10
0.31309
 20
4.48253
 30
0.0
 10
0.31309
 20
4.48253
 30
0.0
 10
0.31309
 20
4.67872
 30
0.0
 10
0.31309
 20
4.67872
 30
0.0
 10
0.31309
 20
4.67872
 30
0.0
 10
0.31309
 20
4.71282
 30
0.0
 10
0.31
 20
4.73478
 30
0.0
 10
0.30371
 20
4.74471
 30
0.0
 10
0.30371
 20
4.74471
 30
0.0
 10
0.29533
 20
4.75762
 30
0.0
 10
0.28242
 20
4.76413
 30
0.0
 10
0.26498
 20
4.76413
 30
0.0
 10
0.26498
 20
4.76413
 30
0.0
 10
0.25218
 20
4.76413
 30
0.0
 10
0.24026
 20
4.76027
 30
0.0
 10
0.22901
 20
4.75243
 30
0.0
 10
0.22901
 20
4.75243
 30
0.0
 10
0.21786
 20
4.74471
 30
0.0
 10
0.20981
 20
4.73334
 30
0.0
 10
0.20484
 20
4.71834
 30
0.0
 10
0.20484
 20
4.71834
 30
0.0
 10
0.19988
 20
4.70333
 30
0.0
 10
0.19734
 20
4.67972
 30
0.0
 10
0.19734
 20
4.64739
 30
0.0
 10
0.19734
 20
4.64739
 30
0.0
 10
0.19734
 20
4.64739
 30
0.0
 10
0.19734
 20
4.48253
 30
0.0
 10
0.19734
 20
4.48253
 30
0.0
 10
0.19734
 20
4.48253
 30
0.0
 10
0.19734
 20
4.48253
 30
0.0
 10
0.10653
 20
4.48253
 30
0.0
 10
0.10653
 20
4.48253
 30
0.0
 10
0.10653
 20
4.48253
 30
0.0
 10
0.10653
 20
4.48253
 30
0.0
 10
0.10653
 20
4.67067
 30
0.0
 10
0.10653
 20
4.67067
 30
0.0
 10
0.10653
 20
4.67067
 30
0.0
 10
0.10653
 20
4.7041
 30
0.0
 10
0.10487
 20
4.72562
 30
0.0
 10
0.10167
 20
4.73533
 30
0.0
 10
0.10167
 20
4.73533
 30
0.0
 10
0.09847
 20
4.74504
 30
0.0
 10
0.0934
 20
4.75221
 30
0.0
 10
0.08666
 20
4.75696
 30
0.0
 10
0.08666
 20
4.75696
 30
0.0
 10
0.07982
 20
4.7617
 30
0.0
 10
0.07066
 20
4.76413
 30
0.0
 10
0.05897
 20
4.76413
 30
0.0
 10
0.05897
 20
4.76413
 30
0.0
 10
0.04495
 20
4.76413
 30
0.0
 10
0.03237
 20
4.76038
 30
0.0
 10
0.02123
 20
4.75276
 30
0.0
 10
0.02123
 20
4.75276
 30
0.0
 10
0.00997
 20
4.74526
 30
0.0
 10
0.00192
 20
4.73434
 30
0.0
 10
-0.00294
 20
4.7201
 30
0.0
 10
-0.00294
 20
4.7201
 30
0.0
 10
-0.00779
 20
4.70587
 30
0.0
 10
-0.01022
 20
4.68236
 30
0.0
 10
-0.01022
 20
4.64937
 30
0.0
 10
-0.01022
 20
4.64937
 30
0.0
 10
-0.01022
 20
4.64937
 30
0.0
 10
-0.01022
 20
4.48253
 30
0.0
 10
-0.01022
 20
4.48253
 30
0.0
 10
-0.01022
 20
4.48253
 30
0.0
 10
-0.01022
 20
4.48253
 30
0.0
 10
-0.10103
 20
4.48253
 30
0.0
 10
-0.10103
 20
4.48253
 30
0.0
 10
-0.10103
 20
4.48253
 30
0.0
 10
-0.10103
 20
4.48253
 30
0.0
 10
-0.10103
 20
4.82581
 30
0.0
 10
-0.10103
 20
4.82581
 30
0.0
  0
SPLINE
  5
91
330
1F
100
AcDbEntity
  8
Warstwa 1
 62
   250
100
AcDbSpline
210
0.0
220
0.0
230
1.0
 70
    11
 71
     3
 72
   124
 73
   120
 74
     0
 42
0.0000000001
 43
0.0000000001
 40
0.0
 40
0.0
 40
0.0
 40
0.0
 40
0.0333333333333333
 40
0.0333333333333333
 40
0.0333333333333333
 40
0.0333333333333333
 40
0.0666666666666667
 40
0.0666666666666667
 40
0.0666666666666667
 40
0.0666666666666667
 40
0.1
 40
0.1
 40
0.1
 40
0.1
 40
0.1333333333333333
 40
0.1333333333333333
 40
0.1333333333333333
 40
0.1333333333333333
 40
0.1666666666666667
 40
0.1666666666666667
 40
0.1666666666666667
 40
0.1666666666666667
 40
0.2
 40
0.2
 40
0.2
 40
0.2
 40
0.2333333333333333
 40
0.2333333333333333
 40
0.2333333333333333
 40
0.2333333333333333
 40
0.2666666666666667
 40
0.2666666666666667
 40
0.2666666666666667
 40
0.2666666666666667
 40
0.3
 40
0.3
 40
0.3
 40
0.3
 40
0.3333333333333333
 40
0.3333333333333333
 40
0.3333333333333333
 40
0.3333333333333333
 40
0.3666666666666666
 40
0.3666666666666666
 40
0.3666666666666666
 40
0.3666666666666666
 40
0.4
 40
0.4
 40
0.4
 40
0.4
 40
0.4333333333333333
 40
0.4333333333333333
 40
0.4333333333333333
 40
0.4333333333333333
 40
0.4666666666666666
 40
0.4666666666666666
 40
0.4666666666666666
 40
0.4666666666666666
 40
0.4999999999999999
 40
0.4999999999999999
 40
0.4999999999999999
 40
0.4999999999999999
 40
0.5333333333333333
 40
0.5333333333333333
 40
0.5333333333333333
 40
0.5333333333333333
 40
0.5666666666666667
 40
0.5666666666666667
 40
0.5666666666666667
 40
0.5666666666666667
 40
0.6
 40
0.6
 40
0.6
 40
0.6
 40
0.6333333333333333
 40
0.6333333333333333
 40
0.6333333333333333
 40
0.6333333333333333
 40
0.6666666666666666
 40
0.6666666666666666
 40
0.6666666666666666
 40
0.6666666666666666
 40
0.7
 40
0.7
 40
0.7
 40
0.7
 40
0.7333333333333333
 40
0.7333333333333333
 40
0.7333333333333333
 40
0.7333333333333333
 40
0.7666666666666666
 40
0.7666666666666666
 40
0.7666666666666666
 40
0.7666666666666666
 40
0.7999999999999999
 40
0.7999999999999999
 40
0.7999999999999999
 40
0.7999999999999999
 40
0.8333333333333333
 40
0.8333333333333333
 40
0.8333333333333333
 40
0.8333333333333333
 40
0.8666666666666666
 40
0.8666666666666666
 40
0.8666666666666666
 40
0.8666666666666666
 40
0.8999999999999999
 40
0.8999999999999999
 40
0.8999999999999999
 40
0.8999999999999999
 40
0.9333333333333332
 40
0.9333333333333332
 40
0.9333333333333332
 40
0.9333333333333332
 40
0.9666666666666666
 40
0.9666666666666666
 40
0.9666666666666666
 40
0.9666666666666666
 40
1.0
 40
1.0
 40
1.0
 40
1.0
 10
0.48766
 20
4.82581
 30
0.0
 10
0.48766
 20
4.82581
 30
0.0
 10
0.57141
 20
4.82581
 30
0.0
 10
0.57141
 20
4.82581
 30
0.0
 10
0.57141
 20
4.82581
 30
0.0
 10
0.57141
 20
4.82581
 30
0.0
 10
0.57141
 20
4.77903
 30
0.0
 10
0.57141
 20
4.77903
 30
0.0
 10
0.57141
 20
4.77903
 30
0.0
 10
0.60131
 20
4.81544
 30
0.0
 10
0.63706
 20
4.83365
 30
0.0
 10
0.67844
 20
4.83365
 30
0.0
 10
0.67844
 20
4.83365
 30
0.0
 10
0.7004
 20
4.83365
 30
0.0
 10
0.71949
 20
4.82912
 30
0.0
 10
0.7356
 20
4.82008
 30
0.0
 10
0.7356
 20
4.82008
 30
0.0
 10
0.75182
 20
4.81103
 30
0.0
 10
0.76506
 20
4.79734
 30
0.0
 10
0.77544
 20
4.77903
 30
0.0
 10
0.77544
 20
4.77903
 30
0.0
 10
0.79044
 20
4.79734
 30
0.0
 10
0.80678
 20
4.81103
 30
0.0
 10
0.82421
 20
4.82008
 30
0.0
 10
0.82421
 20
4.82008
 30
0.0
 10
0.84164
 20
4.82912
 30
0.0
 10
0.86029
 20
4.83365
 30
0.0
 10
0.88015
 20
4.83365
 30
0.0
 10
0.88015
 20
4.83365
 30
0.0
 10
0.90531
 20
4.83365
 30
0.0
 10
0.92672
 20
4.82846
 30
0.0
 10
0.94415
 20
4.8182
 30
0.0
 10
0.94415
 20
4.8182
 30
0.0
 10
0.96159
 20
4.80805
 30
0.0
 10
0.97461
 20
4.79293
 30
0.0
 10
0.98322
 20
4.77318
 30
0.0
 10
0.98322
 20
4.77318
 30
0.0
 10
0.98951
 20
4.7585
 30
0.0
 10
0.9926
 20
4.73478
 30
0.0
 10
0.9926
 20
4.70201
 30
0.0
 10
0.9926
 20
4.70201
 30
0.0
 10
0.9926
 20
4.70201
 30
0.0
 10
0.9926
 20
4.48253
 30
0.0
 10
0.9926
 20
4.48253
 30
0.0
 10
0.9926
 20
4.48253
 30
0.0
 10
0.9926
 20
4.48253
 30
0.0
 10
0.90178
 20
4.48253
 30
0.0
 10
0.90178
 20
4.48253
 30
0.0
 10
0.90178
 20
4.48253
 30
0.0
 10
0.90178
 20
4.48253
 30
0.0
 10
0.90178
 20
4.67872
 30
0.0
 10
0.90178
 20
4.67872
 30
0.0
 10
0.90178
 20
4.67872
 30
0.0
 10
0.90178
 20
4.71282
 30
0.0
 10
0.89869
 20
4.73478
 30
0.0
 10
0.8924
 20
4.74471
 30
0.0
 10
0.8924
 20
4.74471
 30
0.0
 10
0.88402
 20
4.75762
 30
0.0
 10
0.87111
 20
4.76413
 30
0.0
 10
0.85367
 20
4.76413
 30
0.0
 10
0.85367
 20
4.76413
 30
0.0
 10
0.84087
 20
4.76413
 30
0.0
 10
0.82895
 20
4.76027
 30
0.0
 10
0.8177
 20
4.75243
 30
0.0
 10
0.8177
 20
4.75243
 30
0.0
 10
0.80655
 20
4.74471
 30
0.0
 10
0.7985
 20
4.73334
 30
0.0
 10
0.79353
 20
4.71834
 30
0.0
 10
0.79353
 20
4.71834
 30
0.0
 10
0.78857
 20
4.70333
 30
0.0
 10
0.78603
 20
4.67972
 30
0.0
 10
0.78603
 20
4.64739
 30
0.0
 10
0.78603
 20
4.64739
 30
0.0
 10
0.78603
 20
4.64739
 30
0.0
 10
0.78603
 20
4.48253
 30
0.0
 10
0.78603
 20
4.48253
 30
0.0
 10
0.78603
 20
4.48253
 30
0.0
 10
0.78603
 20
4.48253
 30
0.0
 10
0.69522
 20
4.48253
 30
0.0
 10
0.69522
 20
4.48253
 30
0.0
 10
0.69522
 20
4.48253
 30
0.0
 10
0.69522
 20
4.48253
 30
0.0
 10
0.69522
 20
4.67067
 30
0.0
 10
0.69522
 20
4.67067
 30
0.0
 10
0.69522
 20
4.67067
 30
0.0
 10
0.69522
 20
4.7041
 30
0.0
 10
0.69356
 20
4.72562
 30
0.0
 10
0.69036
 20
4.73533
 30
0.0
 10
0.69036
 20
4.73533
 30
0.0
 10
0.68716
 20
4.74504
 30
0.0
 10
0.68209
 20
4.75221
 30
0.0
 10
0.67535
 20
4.75696
 30
0.0
 10
0.67535
 20
4.75696
 30
0.0
 10
0.66851
 20
4.7617
 30
0.0
 10
0.65935
 20
4.76413
 30
0.0
 10
0.64766
 20
4.76413
 30
0.0
 10
0.64766
 20
4.76413
 30
0.0
 10
0.63364
 20
4.76413
 30
0.0
 10
0.62106
 20
4.76038
 30
0.0
 10
0.60992
 20
4.75276
 30
0.0
 10
0.60992
 20
4.75276
 30
0.0
 10
0.59866
 20
4.74526
 30
0.0
 10
0.59061
 20
4.73434
 30
0.0
 10
0.58575
 20
4.7201
 30
0.0
 10
0.58575
 20
4.7201
 30
0.0
 10
0.5809
 20
4.70587
 30
0.0
 10
0.57847
 20
4.68236
 30
0.0
 10
0.57847
 20
4.64937
 30
0.0
 10
0.57847
 20
4.64937
 30
0.0
 10
0.57847
 20
4.64937
 30
0.0
 10
0.57847
 20
4.48253
 30
0.0
 10
0.57847
 20
4.48253
 30
0.0
 10
0.57847
 20
4.48253
 30
0.0
 10
0.57847
 20
4.48253
 30
0.0
 10
0.48766
 20
4.48253
 30
0.0
 10
0.48766
 20
4.48253
 30
0.0
 10
0.48766
 20
4.48253
 30
0.0
 10
0.48766
 20
4.48253
 30
0.0
 10
0.48766
 20
4.82581
 30
0.0
 10
0.48766
 20
4.82581
 30
0.0
  0
SPLINE
  5
92
330
1F
100
AcDbEntity
  8
Warstwa 1
 62
   250
100
AcDbSpline
210
0.0
220
0.0
230
1.0
 70
    11
 71
     3
 72
    20
 73
    16
 74
     0
 42
0.0000000001
 43
0.0000000001
 40
0.0
 40
0.0
 40
0.0
 40
0.0
 40
0.25
 40
0.25
 40
0.25
 40
0.25
 40
0.5
 40
0.5
 40
0.5
 40
0.5
 40
0.75
 40
0.75
 40
0.75
 40
0.75
 40
1.0
 40
1.0
 40
1.0
 40
1.0
 10
-4.81607
 20
9.48781
 30
0.0
 10
-4.81607
 20
9.48781
 30
0.0
 10
-4.94947
 20
8.86111
 30
0.0
 10
-4.94947
 20
8.86111
 30
0.0
 10
-4.94947
 20
8.86111
 30
0.0
 10
-4.94947
 20
8.86111
 30
0.0
 10
-5.08913
 20
8.86111
 30
0.0
 10
-5.08913
 20
8.86111
 30
0.0
 10
-5.08913
 20
8.86111
 30
0.0
 10
-5.08913
 20
8.86111
 30
0.0
 10
-4.95573
 20
9.48781
 30
0.0
 10
-4.95573
 20
9.48781
 30
0.0
 10
-4.95573
 20
9.48781
 30
0.0
 10
-4.95573
 20
9.48781
 30
0.0
 10
-4.81607
 20
9.48781
 30
0.0
 10
-4.81607
 20
9.48781
 30
0.0
  0
SPLINE
  5
93
330
1F
100
AcDbEntity
  8
Warstwa 1
 62
   250
100
AcDbSpline
210
0.0
220
0.0
230
1.0
 70
    11
 71
     3
 72
    80
 73
    76
 74
     0
 42
0.0000000001
 43
0.0000000001
 40
0.0
 40
0.0
 40
0.0
 40
0.0
 40
0.0526315789473684
 40
0.0526315789473684
 40
0.0526315789473684
 40
0.0526315789473684
 40
0.1052631578947368
 40
0.1052631578947368
 40
0.1052631578947368
 40
0.1052631578947368
 40
0.1578947368421053
 40
0.1578947368421053
 40
0.1578947368421053
 40
0.1578947368421053
 40
0.2105263157894737
 40
0.2105263157894737
 40
0.2105263157894737
 40
0.2105263157894737
 40
0.2631578947368421
 40
0.2631578947368421
 40
0.2631578947368421
 40
0.2631578947368421
 40
0.3157894736842105
 40
0.3157894736842105
 40
0.3157894736842105
 40
0.3157894736842105
 40
0.3684210526315789
 40
0.3684210526315789
 40
0.3684210526315789
 40
0.3684210526315789
 40
0.4210526315789473
 40
0.4210526315789473
 40
0.4210526315789473
 40
0.4210526315789473
 40
0.4736842105263158
 40
0.4736842105263158
 40
0.4736842105263158
 40
0.4736842105263158
 40
0.5263157894736842
 40
0.5263157894736842
 40
0.5263157894736842
 40
0.5263157894736842
 40
0.5789473684210527
 40
0.5789473684210527
 40
0.5789473684210527
 40
0.5789473684210527
 40
0.631578947368421
 40
0.631578947368421
 40
0.631578947368421
 40
0.631578947368421
 40
0.6842105263157894
 40
0.6842105263157894
 40
0.6842105263157894
 40
0.6842105263157894
 40
0.7368421052631577
 40
0.7368421052631577
 40
0.7368421052631577
 40
0.7368421052631577
 40
0.7894736842105261
 40
0.7894736842105261
 40
0.7894736842105261
 40
0.7894736842105261
 40
0.8421052631578945
 40
0.8421052631578945
 40
0.8421052631578945
 40
0.8421052631578945
 40
0.8947368421052628
 40
0.8947368421052628
 40
0.8947368421052628
 40
0.8947368421052628
 40
0.9473684210526312
 40
0.9473684210526312
 40
0.9473684210526312
 40
0.9473684210526312
 40
1.0
 40
1.0
 40
1.0
 40
1.0
 10
-4.04523
 20
9.3007
 30
0.0
 10
-4.04523
 20
9.3007
 30
0.0
 10
-4.18579
 20
9.3007
 30
0.0
 10
-4.18579
 20
9.3007
 30
0.0
 10
-4.18579
 20
9.3007
 30
0.0
 10
-4.18638
 20
9.36635
 30
0.0
 10
-4.2407
 20
9.39918
 30
0.0
 10
-4.34873
 20
9.39918
 30
0.0
 10
-4.34873
 20
9.39918
 30
0.0
 10
-4.44363
 20
9.39918
 30
0.0
 10
-4.51406
 20
9.36993
 30
0.0
 10
-4.56002
 20
9.31144
 30
0.0
 10
-4.56002
 20
9.31144
 30
0.0
 10
-4.59881
 20
9.2625
 30
0.0
 10
-4.61821
 20
9.19625
 30
0.0
 10
-4.61821
 20
9.11269
 30
0.0
 10
-4.61821
 20
9.11269
 30
0.0
 10
-4.61821
 20
9.06195
 30
0.0
 10
-4.6024
 20
9.02286
 30
0.0
 10
-4.57076
 20
8.9954
 30
0.0
 10
-4.57076
 20
8.9954
 30
0.0
 10
-4.53734
 20
8.96496
 30
0.0
 10
-4.4878
 20
8.94974
 30
0.0
 10
-4.42214
 20
8.94974
 30
0.0
 10
-4.42214
 20
8.94974
 30
0.0
 10
-4.35888
 20
8.94974
 30
0.0
 10
-4.30635
 20
8.95541
 30
0.0
 10
-4.26457
 20
8.96675
 30
0.0
 10
-4.26457
 20
8.96675
 30
0.0
 10
-4.26457
 20
8.96675
 30
0.0
 10
-4.23771
 20
9.09299
 30
0.0
 10
-4.23771
 20
9.09299
 30
0.0
 10
-4.23771
 20
9.09299
 30
0.0
 10
-4.23771
 20
9.09299
 30
0.0
 10
-4.36305
 20
9.09299
 30
0.0
 10
-4.36305
 20
9.09299
 30
0.0
 10
-4.36305
 20
9.09299
 30
0.0
 10
-4.36305
 20
9.09299
 30
0.0
 10
-4.34157
 20
9.19416
 30
0.0
 10
-4.34157
 20
9.19416
 30
0.0
 10
-4.34157
 20
9.19416
 30
0.0
 10
-4.34157
 20
9.19416
 30
0.0
 10
-4.07746
 20
9.19416
 30
0.0
 10
-4.07746
 20
9.19416
 30
0.0
 10
-4.07746
 20
9.19416
 30
0.0
 10
-4.07746
 20
9.19416
 30
0.0
 10
-4.14102
 20
8.89692
 30
0.0
 10
-4.14102
 20
8.89692
 30
0.0
 10
-4.14102
 20
8.89692
 30
0.0
 10
-4.23473
 20
8.86469
 30
0.0
 10
-4.33202
 20
8.84858
 30
0.0
 10
-4.43289
 20
8.84858
 30
0.0
 10
-4.43289
 20
8.84858
 30
0.0
 10
-4.53137
 20
8.84858
 30
0.0
 10
-4.61045
 20
8.87006
 30
0.0
 10
-4.67014
 20
8.91304
 30
0.0
 10
-4.67014
 20
8.91304
 30
0.0
 10
-4.7346
 20
8.95959
 30
0.0
 10
-4.76683
 20
9.02465
 30
0.0
 10
-4.76683
 20
9.10821
 30
0.0
 10
-4.76683
 20
9.10821
 30
0.0
 10
-4.76683
 20
9.22639
 30
0.0
 10
-4.73221
 20
9.3201
 30
0.0
 10
-4.66298
 20
9.38933
 30
0.0
 10
-4.66298
 20
9.38933
 30
0.0
 10
-4.58897
 20
9.46394
 30
0.0
 10
-4.48302
 20
9.50124
 30
0.0
 10
-4.34515
 20
9.50124
 30
0.0
 10
-4.34515
 20
9.50124
 30
0.0
 10
-4.26517
 20
9.50124
 30
0.0
 10
-4.19922
 20
9.48751
 30
0.0
 10
-4.14729
 20
9.46006
 30
0.0
 10
-4.14729
 20
9.46006
 30
0.0
 10
-4.08104
 20
9.42544
 30
0.0
 10
-4.04702
 20
9.37232
 30
0.0
 10
-4.04523
 20
9.3007
 30
0.0
  0
SPLINE
  5
94
330
1F
100
AcDbEntity
  8
Warstwa 1
 62
   250
100
AcDbSpline
210
0.0
220
0.0
230
1.0
 70
    11
 71
     3
 72
    44
 73
    40
 74
     0
 42
0.0000000001
 43
0.0000000001
 40
0.0
 40
0.0
 40
0.0
 40
0.0
 40
0.1
 40
0.1
 40
0.1
 40
0.1
 40
0.2
 40
0.2
 40
0.2
 40
0.2
 40
0.3
 40
0.3
 40
0.3
 40
0.3
 40
0.4
 40
0.4
 40
0.4
 40
0.4
 40
0.5
 40
0.5
 40
0.5
 40
0.5
 40
0.6
 40
0.6
 40
0.6
 40
0.6
 40
0.7
 40
0.7
 40
0.7
 40
0.7
 40
0.7999999999999999
 40
0.7999999999999999
 40
0.7999999999999999
 40
0.7999999999999999
 40
0.8999999999999999
 40
0.8999999999999999
 40
0.8999999999999999
 40
0.8999999999999999
 40
1.0
 40
1.0
 40
1.0
 40
1.0
 10
-3.24215
 20
9.24698
 30
0.0
 10
-3.24215
 20
9.15327
 30
0.0
 10
-3.26931
 20
9.07001
 30
0.0
 10
-3.32362
 20
8.99719
 30
0.0
 10
-3.32362
 20
8.99719
 30
0.0
 10
-3.37973
 20
8.92259
 30
0.0
 10
-3.45314
 20
8.87633
 30
0.0
 10
-3.54387
 20
8.85842
 30
0.0
 10
-3.54387
 20
8.85842
 30
0.0
 10
-3.57848
 20
8.85126
 30
0.0
 10
-3.62116
 20
8.84768
 30
0.0
 10
-3.67189
 20
8.84768
 30
0.0
 10
-3.67189
 20
8.84768
 30
0.0
 10
-3.76321
 20
8.84768
 30
0.0
 10
-3.83603
 20
8.87066
 30
0.0
 10
-3.89034
 20
8.91662
 30
0.0
 10
-3.89034
 20
8.91662
 30
0.0
 10
-3.94645
 20
8.96377
 30
0.0
 10
-3.9745
 20
9.02734
 30
0.0
 10
-3.9745
 20
9.10731
 30
0.0
 10
-3.9745
 20
9.10731
 30
0.0
 10
-3.9745
 20
9.19565
 30
0.0
 10
-3.95048
 20
9.27294
 30
0.0
 10
-3.90243
 20
9.33919
 30
0.0
 10
-3.90243
 20
9.33919
 30
0.0
 10
-3.85438
 20
9.40545
 30
0.0
 10
-3.78798
 20
9.4529
 30
0.0
 10
-3.70323
 20
9.48155
 30
0.0
 10
-3.70323
 20
9.48155
 30
0.0
 10
-3.66443
 20
9.49468
 30
0.0
 10
-3.6125
 20
9.50124
 30
0.0
 10
-3.54745
 20
9.50124
 30
0.0
 10
-3.54745
 20
9.50124
 30
0.0
 10
-3.45195
 20
9.50124
 30
0.0
 10
-3.37645
 20
9.47647
 30
0.0
 10
-3.32094
 20
9.42693
 30
0.0
 10
-3.32094
 20
9.42693
 30
0.0
 10
-3.26842
 20
9.37978
 30
0.0
 10
-3.24215
 20
9.3198
 30
0.0
 10
-3.24215
 20
9.24698
 30
0.0
  0
SPLINE
  5
95
330
1F
100
AcDbEntity
  8
Warstwa 1
 62
   250
100
AcDbSpline
210
0.0
220
0.0
230
1.0
 70
    11
 71
     3
 72
    36
 73
    32
 74
     0
 42
0.0000000001
 43
0.0000000001
 40
0.0
 40
0.0
 40
0.0
 40
0.0
 40
0.125
 40
0.125
 40
0.125
 40
0.125
 40
0.25
 40
0.25
 40
0.25
 40
0.25
 40
0.375
 40
0.375
 40
0.375
 40
0.375
 40
0.5
 40
0.5
 40
0.5
 40
0.5
 40
0.625
 40
0.625
 40
0.625
 40
0.625
 40
0.75
 40
0.75
 40
0.75
 40
0.75
 40
0.875
 40
0.875
 40
0.875
 40
0.875
 40
1.0
 40
1.0
 40
1.0
 40
1.0
 10
-3.3854
 20
9.2622
 30
0.0
 10
-3.3854
 20
9.30577
 30
0.0
 10
-3.40047
 20
9.34009
 30
0.0
 10
-3.43061
 20
9.36516
 30
0.0
 10
-3.43061
 20
9.36516
 30
0.0
 10
-3.46075
 20
9.39023
 30
0.0
 10
-3.50328
 20
9.40276
 30
0.0
 10
-3.55819
 20
9.40276
 30
0.0
 10
-3.55819
 20
9.40276
 30
0.0
 10
-3.64772
 20
9.40276
 30
0.0
 10
-3.71666
 20
9.37172
 30
0.0
 10
-3.765
 20
9.30965
 30
0.0
 10
-3.765
 20
9.30965
 30
0.0
 10
-3.80798
 20
9.25474
 30
0.0
 10
-3.82946
 20
9.18461
 30
0.0
 10
-3.82946
 20
9.09926
 30
0.0
 10
-3.82946
 20
9.09926
 30
0.0
 10
-3.82946
 20
9.05091
 30
0.0
 10
-3.81245
 20
9.01301
 30
0.0
 10
-3.77843
 20
8.98556
 30
0.0
 10
-3.77843
 20
8.98556
 30
0.0
 10
-3.7468
 20
8.96049
 30
0.0
 10
-3.70621
 20
8.94795
 30
0.0
 10
-3.65667
 20
8.94795
 30
0.0
 10
-3.65667
 20
8.94795
 30
0.0
 10
-3.56893
 20
8.94795
 30
0.0
 10
-3.5003
 20
8.98108
 30
0.0
 10
-3.45076
 20
9.04733
 30
0.0
 10
-3.45076
 20
9.04733
 30
0.0
 10
-3.40719
 20
9.10582
 30
0.0
 10
-3.3854
 20
9.17745
 30
0.0
 10
-3.3854
 20
9.2622
 30
0.0
  0
SPLINE
  5
96
330
1F
100
AcDbEntity
  8
Warstwa 1
 62
   250
100
AcDbSpline
210
0.0
220
0.0
230
1.0
 70
    11
 71
     3
 72
    80
 73
    76
 74
     0
 42
0.0000000001
 43
0.0000000001
 40
0.0
 40
0.0
 40
0.0
 40
0.0
 40
0.0526315789473684
 40
0.0526315789473684
 40
0.0526315789473684
 40
0.0526315789473684
 40
0.1052631578947368
 40
0.1052631578947368
 40
0.1052631578947368
 40
0.1052631578947368
 40
0.1578947368421053
 40
0.1578947368421053
 40
0.1578947368421053
 40
0.1578947368421053
 40
0.2105263157894737
 40
0.2105263157894737
 40
0.2105263157894737
 40
0.2105263157894737
 40
0.2631578947368421
 40
0.2631578947368421
 40
0.2631578947368421
 40
0.2631578947368421
 40
0.3157894736842105
 40
0.3157894736842105
 40
0.3157894736842105
 40
0.3157894736842105
 40
0.3684210526315789
 40
0.3684210526315789
 40
0.3684210526315789
 40
0.3684210526315789
 40
0.4210526315789473
 40
0.4210526315789473
 40
0.4210526315789473
 40
0.4210526315789473
 40
0.4736842105263158
 40
0.4736842105263158
 40
0.4736842105263158
 40
0.4736842105263158
 40
0.5263157894736842
 40
0.5263157894736842
 40
0.5263157894736842
 40
0.5263157894736842
 40
0.5789473684210527
 40
0.5789473684210527
 40
0.5789473684210527
 40
0.5789473684210527
 40
0.631578947368421
 40
0.631578947368421
 40
0.631578947368421
 40
0.631578947368421
 40
0.6842105263157894
 40
0.6842105263157894
 40
0.6842105263157894
 40
0.6842105263157894
 40
0.7368421052631577
 40
0.7368421052631577
 40
0.7368421052631577
 40
0.7368421052631577
 40
0.7894736842105261
 40
0.7894736842105261
 40
0.7894736842105261
 40
0.7894736842105261
 40
0.8421052631578945
 40
0.8421052631578945
 40
0.8421052631578945
 40
0.8421052631578945
 40
0.8947368421052628
 40
0.8947368421052628
 40
0.8947368421052628
 40
0.8947368421052628
 40
0.9473684210526312
 40
0.9473684210526312
 40
0.9473684210526312
 40
0.9473684210526312
 40
1.0
 40
1.0
 40
1.0
 40
1.0
 10
-2.52681
 20
9.34815
 30
0.0
 10
-2.52681
 20
9.29741
 30
0.0
 10
-2.54502
 20
9.25653
 30
0.0
 10
-2.58143
 20
9.22549
 30
0.0
 10
-2.58143
 20
9.22549
 30
0.0
 10
-2.61246
 20
9.19983
 30
0.0
 10
-2.65245
 20
9.18371
 30
0.0
 10
-2.7014
 20
9.17715
 30
0.0
 10
-2.7014
 20
9.17715
 30
0.0
 10
-2.66678
 20
9.17058
 30
0.0
 10
-2.64261
 20
9.1573
 30
0.0
 10
-2.62888
 20
9.13731
 30
0.0
 10
-2.62888
 20
9.13731
 30
0.0
 10
-2.61515
 20
9.11731
 30
0.0
 10
-2.60978
 20
9.08792
 30
0.0
 10
-2.61276
 20
9.04912
 30
0.0
 10
-2.61276
 20
9.04912
 30
0.0
 10
-2.61276
 20
9.04912
 30
0.0
 10
-2.61724
 20
8.98645
 30
0.0
 10
-2.61724
 20
8.98645
 30
0.0
 10
-2.61724
 20
8.98645
 30
0.0
 10
-2.61903
 20
8.96138
 30
0.0
 10
-2.61992
 20
8.9196
 30
0.0
 10
-2.61992
 20
8.86111
 30
0.0
 10
-2.61992
 20
8.86111
 30
0.0
 10
-2.61992
 20
8.86111
 30
0.0
 10
-2.76138
 20
8.86111
 30
0.0
 10
-2.76138
 20
8.86111
 30
0.0
 10
-2.76138
 20
8.86111
 30
0.0
 10
-2.76019
 20
8.88439
 30
0.0
 10
-2.7584
 20
8.9193
 30
0.0
 10
-2.75601
 20
8.96586
 30
0.0
 10
-2.75601
 20
8.96586
 30
0.0
 10
-2.75601
 20
8.96586
 30
0.0
 10
-2.75153
 20
9.02584
 30
0.0
 10
-2.75153
 20
9.02584
 30
0.0
 10
-2.75153
 20
9.02584
 30
0.0
 10
-2.75034
 20
9.03838
 30
0.0
 10
-2.74974
 20
9.04882
 30
0.0
 10
-2.74974
 20
9.05718
 30
0.0
 10
-2.74974
 20
9.05718
 30
0.0
 10
-2.74974
 20
9.08523
 30
0.0
 10
-2.75646
 20
9.10299
 30
0.0
 10
-2.76989
 20
9.11045
 30
0.0
 10
-2.76989
 20
9.11045
 30
0.0
 10
-2.78332
 20
9.11791
 30
0.0
 10
-2.81182
 20
9.12164
 30
0.0
 10
-2.85539
 20
9.12164
 30
0.0
 10
-2.85539
 20
9.12164
 30
0.0
 10
-2.85539
 20
9.12164
 30
0.0
 10
-2.99774
 20
9.12164
 30
0.0
 10
-2.99774
 20
9.12164
 30
0.0
 10
-2.99774
 20
9.12164
 30
0.0
 10
-2.99774
 20
9.12164
 30
0.0
 10
-3.05325
 20
8.86111
 30
0.0
 10
-3.05325
 20
8.86111
 30
0.0
 10
-3.05325
 20
8.86111
 30
0.0
 10
-3.05325
 20
8.86111
 30
0.0
 10
-3.19291
 20
8.86111
 30
0.0
 10
-3.19291
 20
8.86111
 30
0.0
 10
-3.19291
 20
8.86111
 30
0.0
 10
-3.19291
 20
8.86111
 30
0.0
 10
-3.05951
 20
9.48781
 30
0.0
 10
-3.05951
 20
9.48781
 30
0.0
 10
-3.05951
 20
9.48781
 30
0.0
 10
-3.05951
 20
9.48781
 30
0.0
 10
-2.72109
 20
9.48781
 30
0.0
 10
-2.72109
 20
9.48781
 30
0.0
 10
-2.72109
 20
9.48781
 30
0.0
 10
-2.66379
 20
9.48781
 30
0.0
 10
-2.61784
 20
9.47647
 30
0.0
 10
-2.58322
 20
9.45379
 30
0.0
 10
-2.58322
 20
9.45379
 30
0.0
 10
-2.54562
 20
9.42872
 30
0.0
 10
-2.52681
 20
9.39351
 30
0.0
 10
-2.52681
 20
9.34815
 30
0.0
  0
SPLINE
  5
97
330
1F
100
AcDbEntity
  8
Warstwa 1
 62
   250
100
AcDbSpline
210
0.0
220
0.0
230
1.0
 70
    11
 71
     3
 72
    32
 73
    28
 74
     0
 42
0.0000000001
 43
0.0000000001
 40
0.0
 40
0.0
 40
0.0
 40
0.0
 40
0.1428571428571428
 40
0.1428571428571428
 40
0.1428571428571428
 40
0.1428571428571428
 40
0.2857142857142857
 40
0.2857142857142857
 40
0.2857142857142857
 40
0.2857142857142857
 40
0.4285714285714285
 40
0.4285714285714285
 40
0.4285714285714285
 40
0.4285714285714285
 40
0.5714285714285714
 40
0.5714285714285714
 40
0.5714285714285714
 40
0.5714285714285714
 40
0.7142857142857142
 40
0.7142857142857142
 40
0.7142857142857142
 40
0.7142857142857142
 40
0.857142857142857
 40
0.857142857142857
 40
0.857142857142857
 40
0.857142857142857
 40
1.0
 40
1.0
 40
1.0
 40
1.0
 10
-2.67901
 20
9.31592
 30
0.0
 10
-2.67901
 20
9.34278
 30
0.0
 10
-2.68633
 20
9.36128
 30
0.0
 10
-2.70095
 20
9.37143
 30
0.0
 10
-2.70095
 20
9.37143
 30
0.0
 10
-2.71557
 20
9.38157
 30
0.0
 10
-2.74407
 20
9.38665
 30
0.0
 10
-2.78645
 20
9.38665
 30
0.0
 10
-2.78645
 20
9.38665
 30
0.0
 10
-2.78645
 20
9.38665
 30
0.0
 10
-2.94133
 20
9.38665
 30
0.0
 10
-2.94133
 20
9.38665
 30
0.0
 10
-2.94133
 20
9.38665
 30
0.0
 10
-2.94133
 20
9.38665
 30
0.0
 10
-2.97715
 20
9.21923
 30
0.0
 10
-2.97715
 20
9.21923
 30
0.0
 10
-2.97715
 20
9.21923
 30
0.0
 10
-2.97715
 20
9.21923
 30
0.0
 10
-2.82853
 20
9.21923
 30
0.0
 10
-2.82853
 20
9.21923
 30
0.0
 10
-2.82853
 20
9.21923
 30
0.0
 10
-2.78496
 20
9.21923
 30
0.0
 10
-2.74974
 20
9.22699
 30
0.0
 10
-2.72288
 20
9.2425
 30
0.0
 10
-2.72288
 20
9.2425
 30
0.0
 10
-2.69364
 20
9.25922
 30
0.0
 10
-2.67901
 20
9.28369
 30
0.0
 10
-2.67901
 20
9.31592
 30
0.0
  0
SPLINE
  5
98
330
1F
100
AcDbEntity
  8
Warstwa 1
 62
   250
100
AcDbSpline
210
0.0
220
0.0
230
1.0
 70
    11
 71
     3
 72
    52
 73
    48
 74
     0
 42
0.0000000001
 43
0.0000000001
 40
0.0
 40
0.0
 40
0.0
 40
0.0
 40
0.0833333333333333
 40
0.0833333333333333
 40
0.0833333333333333
 40
0.0833333333333333
 40
0.1666666666666667
 40
0.1666666666666667
 40
0.1666666666666667
 40
0.1666666666666667
 40
0.25
 40
0.25
 40
0.25
 40
0.25
 40
0.3333333333333333
 40
0.3333333333333333
 40
0.3333333333333333
 40
0.3333333333333333
 40
0.4166666666666666
 40
0.4166666666666666
 40
0.4166666666666666
 40
0.4166666666666666
 40
0.4999999999999999
 40
0.4999999999999999
 40
0.4999999999999999
 40
0.4999999999999999
 40
0.5833333333333333
 40
0.5833333333333333
 40
0.5833333333333333
 40
0.5833333333333333
 40
0.6666666666666666
 40
0.6666666666666666
 40
0.6666666666666666
 40
0.6666666666666666
 40
0.75
 40
0.75
 40
0.75
 40
0.75
 40
0.8333333333333334
 40
0.8333333333333334
 40
0.8333333333333334
 40
0.8333333333333334
 40
0.9166666666666667
 40
0.9166666666666667
 40
0.9166666666666667
 40
0.9166666666666667
 40
1.0
 40
1.0
 40
1.0
 40
1.0
 10
-1.88847
 20
9.48781
 30
0.0
 10
-1.88847
 20
9.48781
 30
0.0
 10
-1.90996
 20
9.38665
 30
0.0
 10
-1.90996
 20
9.38665
 30
0.0
 10
-1.90996
 20
9.38665
 30
0.0
 10
-1.90996
 20
9.38665
 30
0.0
 10
-2.25733
 20
9.38665
 30
0.0
 10
-2.25733
 20
9.38665
 30
0.0
 10
-2.25733
 20
9.38665
 30
0.0
 10
-2.25733
 20
9.38665
 30
0.0
 10
-2.29046
 20
9.23176
 30
0.0
 10
-2.29046
 20
9.23176
 30
0.0
 10
-2.29046
 20
9.23176
 30
0.0
 10
-2.29046
 20
9.23176
 30
0.0
 10
-1.95741
 20
9.23176
 30
0.0
 10
-1.95741
 20
9.23176
 30
0.0
 10
-1.95741
 20
9.23176
 30
0.0
 10
-1.95741
 20
9.23176
 30
0.0
 10
-1.9789
 20
9.1297
 30
0.0
 10
-1.9789
 20
9.1297
 30
0.0
 10
-1.9789
 20
9.1297
 30
0.0
 10
-1.9789
 20
9.1297
 30
0.0
 10
-2.31195
 20
9.1297
 30
0.0
 10
-2.31195
 20
9.1297
 30
0.0
 10
-2.31195
 20
9.1297
 30
0.0
 10
-2.31195
 20
9.1297
 30
0.0
 10
-2.34776
 20
8.96228
 30
0.0
 10
-2.34776
 20
8.96228
 30
0.0
 10
-2.34776
 20
8.96228
 30
0.0
 10
-2.34776
 20
8.96228
 30
0.0
 10
-1.99322
 20
8.96228
 30
0.0
 10
-1.99322
 20
8.96228
 30
0.0
 10
-1.99322
 20
8.96228
 30
0.0
 10
-1.99322
 20
8.96228
 30
0.0
 10
-2.01471
 20
8.86111
 30
0.0
 10
-2.01471
 20
8.86111
 30
0.0
 10
-2.01471
 20
8.86111
 30
0.0
 10
-2.01471
 20
8.86111
 30
0.0
 10
-2.50891
 20
8.86111
 30
0.0
 10
-2.50891
 20
8.86111
 30
0.0
 10
-2.50891
 20
8.86111
 30
0.0
 10
-2.50891
 20
8.86111
 30
0.0
 10
-2.37551
 20
9.48781
 30
0.0
 10
-2.37551
 20
9.48781
 30
0.0
 10
-2.37551
 20
9.48781
 30
0.0
 10
-2.37551
 20
9.48781
 30
0.0
 10
-1.88847
 20
9.48781
 30
0.0
 10
-1.88847
 20
9.48781
 30
0.0
  0
SPLINE
  5
99
330
1F
100
AcDbEntity
  8
Warstwa 1
 62
   250
100
AcDbSpline
210
0.0
220
0.0
230
1.0
 70
    11
 71
     3
 72
    48
 73
    44
 74
     0
 42
0.0000000001
 43
0.0000000001
 40
0.0
 40
0.0
 40
0.0
 40
0.0
 40
0.0909090909090909
 40
0.0909090909090909
 40
0.0909090909090909
 40
0.0909090909090909
 40
0.1818181818181818
 40
0.1818181818181818
 40
0.1818181818181818
 40
0.1818181818181818
 40
0.2727272727272727
 40
0.2727272727272727
 40
0.2727272727272727
 40
0.2727272727272727
 40
0.3636363636363636
 40
0.3636363636363636
 40
0.3636363636363636
 40
0.3636363636363636
 40
0.4545454545454546
 40
0.4545454545454546
 40
0.4545454545454546
 40
0.4545454545454546
 40
0.5454545454545455
 40
0.5454545454545455
 40
0.5454545454545455
 40
0.5454545454545455
 40
0.6363636363636365
 40
0.6363636363636365
 40
0.6363636363636365
 40
0.6363636363636365
 40
0.7272727272727274
 40
0.7272727272727274
 40
0.7272727272727274
 40
0.7272727272727274
 40
0.8181818181818183
 40
0.8181818181818183
 40
0.8181818181818183
 40
0.8181818181818183
 40
0.9090909090909093
 40
0.9090909090909093
 40
0.9090909090909093
 40
0.9090909090909093
 40
1.0
 40
1.0
 40
1.0
 40
1.0
 10
-1.16418
 20
9.48781
 30
0.0
 10
-1.16418
 20
9.48781
 30
0.0
 10
-1.54289
 20
9.20222
 30
0.0
 10
-1.54289
 20
9.20222
 30
0.0
 10
-1.54289
 20
9.20222
 30
0.0
 10
-1.54289
 20
9.20222
 30
0.0
 10
-1.29758
 20
8.86111
 30
0.0
 10
-1.29758
 20
8.86111
 30
0.0
 10
-1.29758
 20
8.86111
 30
0.0
 10
-1.29758
 20
8.86111
 30
0.0
 10
-1.46589
 20
8.86111
 30
0.0
 10
-1.46589
 20
8.86111
 30
0.0
 10
-1.46589
 20
8.86111
 30
0.0
 10
-1.46589
 20
8.86111
 30
0.0
 10
-1.6924
 20
9.18431
 30
0.0
 10
-1.6924
 20
9.18431
 30
0.0
 10
-1.6924
 20
9.18431
 30
0.0
 10
-1.6924
 20
9.18431
 30
0.0
 10
-1.76134
 20
8.86111
 30
0.0
 10
-1.76134
 20
8.86111
 30
0.0
 10
-1.76134
 20
8.86111
 30
0.0
 10
-1.76134
 20
8.86111
 30
0.0
 10
-1.9019
 20
8.86111
 30
0.0
 10
-1.9019
 20
8.86111
 30
0.0
 10
-1.9019
 20
8.86111
 30
0.0
 10
-1.9019
 20
8.86111
 30
0.0
 10
-1.7685
 20
9.48781
 30
0.0
 10
-1.7685
 20
9.48781
 30
0.0
 10
-1.7685
 20
9.48781
 30
0.0
 10
-1.7685
 20
9.48781
 30
0.0
 10
-1.62884
 20
9.48781
 30
0.0
 10
-1.62884
 20
9.48781
 30
0.0
 10
-1.62884
 20
9.48781
 30
0.0
 10
-1.62884
 20
9.48781
 30
0.0
 10
-1.68524
 20
9.22102
 30
0.0
 10
-1.68524
 20
9.22102
 30
0.0
 10
-1.68524
 20
9.22102
 30
0.0
 10
-1.68524
 20
9.22102
 30
0.0
 10
-1.36473
 20
9.48781
 30
0.0
 10
-1.36473
 20
9.48781
 30
0.0
 10
-1.36473
 20
9.48781
 30
0.0
 10
-1.36473
 20
9.48781
 30
0.0
 10
-1.16418
 20
9.48781
 30
0.0
 10
-1.16418
 20
9.48781
 30
0.0
  0
SPLINE
  5
9A
330
1F
100
AcDbEntity
  8
Warstwa 1
 62
   250
100
AcDbSpline
210
0.0
220
0.0
230
1.0
 70
    11
 71
     3
 72
    52
 73
    48
 74
     0
 42
0.0000000001
 43
0.0000000001
 40
0.0
 40
0.0
 40
0.0
 40
0.0
 40
0.0833333333333333
 40
0.0833333333333333
 40
0.0833333333333333
 40
0.0833333333333333
 40
0.1666666666666667
 40
0.1666666666666667
 40
0.1666666666666667
 40
0.1666666666666667
 40
0.25
 40
0.25
 40
0.25
 40
0.25
 40
0.3333333333333333
 40
0.3333333333333333
 40
0.3333333333333333
 40
0.3333333333333333
 40
0.4166666666666666
 40
0.4166666666666666
 40
0.4166666666666666
 40
0.4166666666666666
 40
0.4999999999999999
 40
0.4999999999999999
 40
0.4999999999999999
 40
0.4999999999999999
 40
0.5833333333333333
 40
0.5833333333333333
 40
0.5833333333333333
 40
0.5833333333333333
 40
0.6666666666666666
 40
0.6666666666666666
 40
0.6666666666666666
 40
0.6666666666666666
 40
0.75
 40
0.75
 40
0.75
 40
0.75
 40
0.8333333333333334
 40
0.8333333333333334
 40
0.8333333333333334
 40
0.8333333333333334
 40
0.9166666666666667
 40
0.9166666666666667
 40
0.9166666666666667
 40
0.9166666666666667
 40
1.0
 40
1.0
 40
1.0
 40
1.0
 10
-0.953
 20
9.62682
 30
0.0
 10
-0.93037
 20
9.62682
 30
0.0
 10
-0.90829
 20
9.62103
 30
0.0
 10
-0.8867
 20
9.60944
 30
0.0
 10
-0.8867
 20
9.60944
 30
0.0
 10
-0.86516
 20
9.59779
 30
0.0
 10
-0.84833
 20
9.5812
 30
0.0
 10
-0.83632
 20
9.55955
 30
0.0
 10
-0.83632
 20
9.55955
 30
0.0
 10
-0.8243
 20
9.53795
 30
0.0
 10
-0.81826
 20
9.51539
 30
0.0
 10
-0.81826
 20
9.4919
 30
0.0
 10
-0.81826
 20
9.4919
 30
0.0
 10
-0.81826
 20
9.46866
 30
0.0
 10
-0.82418
 20
9.44634
 30
0.0
 10
-0.83607
 20
9.42493
 30
0.0
 10
-0.83607
 20
9.42493
 30
0.0
 10
-0.84791
 20
9.40346
 30
0.0
 10
-0.86456
 20
9.38681
 30
0.0
 10
-0.88591
 20
9.37498
 30
0.0
 10
-0.88591
 20
9.37498
 30
0.0
 10
-0.90732
 20
9.36308
 30
0.0
 10
-0.92963
 20
9.35717
 30
0.0
 10
-0.953
 20
9.35717
 30
0.0
 10
-0.953
 20
9.35717
 30
0.0
 10
-0.97636
 20
9.35717
 30
0.0
 10
-0.99875
 20
9.36308
 30
0.0
 10
-1.02009
 20
9.37498
 30
0.0
 10
-1.02009
 20
9.37498
 30
0.0
 10
-1.04151
 20
9.38681
 30
0.0
 10
-1.05815
 20
9.40346
 30
0.0
 10
-1.07005
 20
9.42493
 30
0.0
 10
-1.07005
 20
9.42493
 30
0.0
 10
-1.082
 20
9.44634
 30
0.0
 10
-1.08792
 20
9.46866
 30
0.0
 10
-1.08792
 20
9.4919
 30
0.0
 10
-1.08792
 20
9.4919
 30
0.0
 10
-1.08792
 20
9.51539
 30
0.0
 10
-1.08188
 20
9.53795
 30
0.0
 10
-1.0698
 20
9.55955
 30
0.0
 10
-1.0698
 20
9.55955
 30
0.0
 10
-1.05773
 20
9.5812
 30
0.0
 10
-1.04089
 20
9.59779
 30
0.0
 10
-1.0193
 20
9.60944
 30
0.0
 10
-1.0193
 20
9.60944
 30
0.0
 10
-0.99777
 20
9.62103
 30
0.0
 10
-0.97563
 20
9.62682
 30
0.0
 10
-0.953
 20
9.62682
 30
0.0
  0
SPLINE
  5
9B
330
1F
100
AcDbEntity
  8
Warstwa 1
 62
   250
100
AcDbSpline
210
0.0
220
0.0
230
1.0
 70
    11
 71
     3
 72
    52
 73
    48
 74
     0
 42
0.0000000001
 43
0.0000000001
 40
0.0
 40
0.0
 40
0.0
 40
0.0
 40
0.0833333333333333
 40
0.0833333333333333
 40
0.0833333333333333
 40
0.0833333333333333
 40
0.1666666666666667
 40
0.1666666666666667
 40
0.1666666666666667
 40
0.1666666666666667
 40
0.25
 40
0.25
 40
0.25
 40
0.25
 40
0.3333333333333333
 40
0.3333333333333333
 40
0.3333333333333333
 40
0.3333333333333333
 40
0.4166666666666666
 40
0.4166666666666666
 40
0.4166666666666666
 40
0.4166666666666666
 40
0.4999999999999999
 40
0.4999999999999999
 40
0.4999999999999999
 40
0.4999999999999999
 40
0.5833333333333333
 40
0.5833333333333333
 40
0.5833333333333333
 40
0.5833333333333333
 40
0.6666666666666666
 40
0.6666666666666666
 40
0.6666666666666666
 40
0.6666666666666666
 40
0.75
 40
0.75
 40
0.75
 40
0.75
 40
0.8333333333333334
 40
0.8333333333333334
 40
0.8333333333333334
 40
0.8333333333333334
 40
0.9166666666666667
 40
0.9166666666666667
 40
0.9166666666666667
 40
0.9166666666666667
 40
1.0
 40
1.0
 40
1.0
 40
1.0
 10
-0.953
 20
9.6045
 30
0.0
 10
-0.97197
 20
9.6045
 30
0.0
 10
-0.99039
 20
9.59962
 30
0.0
 10
-1.00832
 20
9.58992
 30
0.0
 10
-1.00832
 20
9.58992
 30
0.0
 10
-1.02626
 20
9.58022
 30
0.0
 10
-1.04028
 20
9.56632
 30
0.0
 10
-1.05041
 20
9.54832
 30
0.0
 10
-1.05041
 20
9.54832
 30
0.0
 10
-1.06053
 20
9.53027
 30
0.0
 10
-1.0656
 20
9.51149
 30
0.0
 10
-1.0656
 20
9.4919
 30
0.0
 10
-1.0656
 20
9.4919
 30
0.0
 10
-1.0656
 20
9.47251
 30
0.0
 10
-1.0606
 20
9.45391
 30
0.0
 10
-1.05065
 20
9.43609
 30
0.0
 10
-1.05065
 20
9.43609
 30
0.0
 10
-1.04071
 20
9.41828
 30
0.0
 10
-1.0268
 20
9.40438
 30
0.0
 10
-1.00893
 20
9.39444
 30
0.0
 10
-1.00893
 20
9.39444
 30
0.0
 10
-0.99106
 20
9.38449
 30
0.0
 10
-0.97246
 20
9.37949
 30
0.0
 10
-0.953
 20
9.37949
 30
0.0
 10
-0.953
 20
9.37949
 30
0.0
 10
-0.9336
 20
9.37949
 30
0.0
 10
-0.91494
 20
9.38449
 30
0.0
 10
-0.89707
 20
9.39444
 30
0.0
 10
-0.89707
 20
9.39444
 30
0.0
 10
-0.8792
 20
9.40438
 30
0.0
 10
-0.86535
 20
9.41828
 30
0.0
 10
-0.85547
 20
9.43609
 30
0.0
 10
-0.85547
 20
9.43609
 30
0.0
 10
-0.84559
 20
9.45391
 30
0.0
 10
-0.84065
 20
9.47251
 30
0.0
 10
-0.84065
 20
9.4919
 30
0.0
 10
-0.84065
 20
9.4919
 30
0.0
 10
-0.84065
 20
9.51149
 30
0.0
 10
-0.84565
 20
9.53027
 30
0.0
 10
-0.85571
 20
9.54832
 30
0.0
 10
-0.85571
 20
9.54832
 30
0.0
 10
-0.86578
 20
9.56632
 30
0.0
 10
-0.87981
 20
9.58022
 30
0.0
 10
-0.8978
 20
9.58992
 30
0.0
 10
-0.8978
 20
9.58992
 30
0.0
 10
-0.91579
 20
9.59962
 30
0.0
 10
-0.93421
 20
9.6045
 30
0.0
 10
-0.953
 20
9.6045
 30
0.0
  0
SPLINE
  5
9C
330
1F
100
AcDbEntity
  8
Warstwa 1
 62
   250
100
AcDbSpline
210
0.0
220
0.0
230
1.0
 70
    11
 71
     3
 72
    72
 73
    68
 74
     0
 42
0.0000000001
 43
0.0000000001
 40
0.0
 40
0.0
 40
0.0
 40
0.0
 40
0.0588235294117647
 40
0.0588235294117647
 40
0.0588235294117647
 40
0.0588235294117647
 40
0.1176470588235294
 40
0.1176470588235294
 40
0.1176470588235294
 40
0.1176470588235294
 40
0.1764705882352941
 40
0.1764705882352941
 40
0.1764705882352941
 40
0.1764705882352941
 40
0.2352941176470588
 40
0.2352941176470588
 40
0.2352941176470588
 40
0.2352941176470588
 40
0.2941176470588235
 40
0.2941176470588235
 40
0.2941176470588235
 40
0.2941176470588235
 40
0.3529411764705883
 40
0.3529411764705883
 40
0.3529411764705883
 40
0.3529411764705883
 40
0.411764705882353
 40
0.411764705882353
 40
0.411764705882353
 40
0.411764705882353
 40
0.4705882352941177
 40
0.4705882352941177
 40
0.4705882352941177
 40
0.4705882352941177
 40
0.5294117647058824
 40
0.5294117647058824
 40
0.5294117647058824
 40
0.5294117647058824
 40
0.5882352941176471
 40
0.5882352941176471
 40
0.5882352941176471
 40
0.5882352941176471
 40
0.6470588235294118
 40
0.6470588235294118
 40
0.6470588235294118
 40
0.6470588235294118
 40
0.7058823529411765
 40
0.7058823529411765
 40
0.7058823529411765
 40
0.7058823529411765
 40
0.7647058823529412
 40
0.7647058823529412
 40
0.7647058823529412
 40
0.7647058823529412
 40
0.823529411764706
 40
0.823529411764706
 40
0.823529411764706
 40
0.823529411764706
 40
0.8823529411764707
 40
0.8823529411764707
 40
0.8823529411764707
 40
0.8823529411764707
 40
0.9411764705882354
 40
0.9411764705882354
 40
0.9411764705882354
 40
0.9411764705882354
 40
1.0
 40
1.0
 40
1.0
 40
1.0
 10
-1.01217
 20
9.41743
 30
0.0
 10
-1.01217
 20
9.41743
 30
0.0
 10
-1.01217
 20
9.56248
 30
0.0
 10
-1.01217
 20
9.56248
 30
0.0
 10
-1.01217
 20
9.56248
 30
0.0
 10
-1.01217
 20
9.56248
 30
0.0
 10
-0.96233
 20
9.56248
 30
0.0
 10
-0.96233
 20
9.56248
 30
0.0
 10
-0.96233
 20
9.56248
 30
0.0
 10
-0.94525
 20
9.56248
 30
0.0
 10
-0.93293
 20
9.56119
 30
0.0
 10
-0.92531
 20
9.55851
 30
0.0
 10
-0.92531
 20
9.55851
 30
0.0
 10
-0.91769
 20
9.55582
 30
0.0
 10
-0.91164
 20
9.55113
 30
0.0
 10
-0.90707
 20
9.54448
 30
0.0
 10
-0.90707
 20
9.54448
 30
0.0
 10
-0.90255
 20
9.53777
 30
0.0
 10
-0.9003
 20
9.53069
 30
0.0
 10
-0.9003
 20
9.52319
 30
0.0
 10
-0.9003
 20
9.52319
 30
0.0
 10
-0.9003
 20
9.51258
 30
0.0
 10
-0.90408
 20
9.50337
 30
0.0
 10
-0.91164
 20
9.49551
 30
0.0
 10
-0.91164
 20
9.49551
 30
0.0
 10
-0.91921
 20
9.48763
 30
0.0
 10
-0.92927
 20
9.48324
 30
0.0
 10
-0.94177
 20
9.48226
 30
0.0
 10
-0.94177
 20
9.48226
 30
0.0
 10
-0.93665
 20
9.48013
 30
0.0
 10
-0.93251
 20
9.47757
 30
0.0
 10
-0.92946
 20
9.47458
 30
0.0
 10
-0.92946
 20
9.47458
 30
0.0
 10
-0.9236
 20
9.46885
 30
0.0
 10
-0.91646
 20
9.45927
 30
0.0
 10
-0.90798
 20
9.44579
 30
0.0
 10
-0.90798
 20
9.44579
 30
0.0
 10
-0.90798
 20
9.44579
 30
0.0
 10
-0.8903
 20
9.41743
 30
0.0
 10
-0.8903
 20
9.41743
 30
0.0
 10
-0.8903
 20
9.41743
 30
0.0
 10
-0.8903
 20
9.41743
 30
0.0
 10
-0.9189
 20
9.41743
 30
0.0
 10
-0.9189
 20
9.41743
 30
0.0
 10
-0.9189
 20
9.41743
 30
0.0
 10
-0.9189
 20
9.41743
 30
0.0
 10
-0.93178
 20
9.4403
 30
0.0
 10
-0.93178
 20
9.4403
 30
0.0
 10
-0.93178
 20
9.4403
 30
0.0
 10
-0.9419
 20
9.45823
 30
0.0
 10
-0.95001
 20
9.46952
 30
0.0
 10
-0.95623
 20
9.47403
 30
0.0
 10
-0.95623
 20
9.47403
 30
0.0
 10
-0.9605
 20
9.47738
 30
0.0
 10
-0.96679
 20
9.47903
 30
0.0
 10
-0.97502
 20
9.47903
 30
0.0
 10
-0.97502
 20
9.47903
 30
0.0
 10
-0.97502
 20
9.47903
 30
0.0
 10
-0.98874
 20
9.47903
 30
0.0
 10
-0.98874
 20
9.47903
 30
0.0
 10
-0.98874
 20
9.47903
 30
0.0
 10
-0.98874
 20
9.47903
 30
0.0
 10
-0.98874
 20
9.41743
 30
0.0
 10
-0.98874
 20
9.41743
 30
0.0
 10
-0.98874
 20
9.41743
 30
0.0
 10
-0.98874
 20
9.41743
 30
0.0
 10
-1.01217
 20
9.41743
 30
0.0
 10
-1.01217
 20
9.41743
 30
0.0
  0
SPLINE
  5
9D
330
1F
100
AcDbEntity
  8
Warstwa 1
 62
   250
100
AcDbSpline
210
0.0
220
0.0
230
1.0
 70
    11
 71
     3
 72
    36
 73
    32
 74
     0
 42
0.0000000001
 43
0.0000000001
 40
0.0
 40
0.0
 40
0.0
 40
0.0
 40
0.125
 40
0.125
 40
0.125
 40
0.125
 40
0.25
 40
0.25
 40
0.25
 40
0.25
 40
0.375
 40
0.375
 40
0.375
 40
0.375
 40
0.5
 40
0.5
 40
0.5
 40
0.5
 40
0.625
 40
0.625
 40
0.625
 40
0.625
 40
0.75
 40
0.75
 40
0.75
 40
0.75
 40
0.875
 40
0.875
 40
0.875
 40
0.875
 40
1.0
 40
1.0
 40
1.0
 40
1.0
 10
-0.98874
 20
9.49904
 30
0.0
 10
-0.98874
 20
9.49904
 30
0.0
 10
-0.96032
 20
9.49904
 30
0.0
 10
-0.96032
 20
9.49904
 30
0.0
 10
-0.96032
 20
9.49904
 30
0.0
 10
-0.94677
 20
9.49904
 30
0.0
 10
-0.93751
 20
9.50112
 30
0.0
 10
-0.93257
 20
9.50514
 30
0.0
 10
-0.93257
 20
9.50514
 30
0.0
 10
-0.92763
 20
9.50917
 30
0.0
 10
-0.92512
 20
9.51454
 30
0.0
 10
-0.92512
 20
9.52124
 30
0.0
 10
-0.92512
 20
9.52124
 30
0.0
 10
-0.92512
 20
9.52551
 30
0.0
 10
-0.92634
 20
9.52936
 30
0.0
 10
-0.92873
 20
9.53277
 30
0.0
 10
-0.92873
 20
9.53277
 30
0.0
 10
-0.9311
 20
9.53612
 30
0.0
 10
-0.9344
 20
9.53868
 30
0.0
 10
-0.93861
 20
9.54033
 30
0.0
 10
-0.93861
 20
9.54033
 30
0.0
 10
-0.94287
 20
9.54204
 30
0.0
 10
-0.95068
 20
9.54283
 30
0.0
 10
-0.96215
 20
9.54283
 30
0.0
 10
-0.96215
 20
9.54283
 30
0.0
 10
-0.96215
 20
9.54283
 30
0.0
 10
-0.98874
 20
9.54283
 30
0.0
 10
-0.98874
 20
9.54283
 30
0.0
 10
-0.98874
 20
9.54283
 30
0.0
 10
-0.98874
 20
9.54283
 30
0.0
 10
-0.98874
 20
9.49904
 30
0.0
 10
-0.98874
 20
9.49904
 30
0.0
  0
SPLINE
  5
9E
330
1F
100
AcDbEntity
  8
Warstwa 1
 62
   254
100
AcDbSpline
210
0.0
220
0.0
230
1.0
 70
    11
 71
     3
 72
    20
 73
    16
 74
     0
 42
0.0000000001
 43
0.0000000001
 40
0.0
 40
0.0
 40
0.0
 40
0.0
 40
0.25
 40
0.25
 40
0.25
 40
0.25
 40
0.5
 40
0.5
 40
0.5
 40
0.5
 40
0.75
 40
0.75
 40
0.75
 40
0.75
 40
1.0
 40
1.0
 40
1.0
 40
1.0
 10
-0.48838
 20
7.34729
 30
0.0
 10
-0.48838
 20
7.34729
 30
0.0
 10
-1.47269
 20
7.34729
 30
0.0
 10
-1.47269
 20
7.34729
 30
0.0
 10
-1.47269
 20
7.34729
 30
0.0
 10
-1.47269
 20
7.34729
 30
0.0
 10
-2.0986
 20
6.4256
 30
0.0
 10
-2.0986
 20
6.4256
 30
0.0
 10
-2.0986
 20
6.4256
 30
0.0
 10
-2.0986
 20
6.4256
 30
0.0
 10
-1.11317
 20
6.4256
 30
0.0
 10
-1.11317
 20
6.4256
 30
0.0
 10
-1.11317
 20
6.4256
 30
0.0
 10
-1.11317
 20
6.4256
 30
0.0
 10
-0.48838
 20
7.34729
 30
0.0
 10
-0.48838
 20
7.34729
 30
0.0
  0
SPLINE
  5
9F
330
1F
100
AcDbEntity
  8
Warstwa 1
 62
    22
100
AcDbSpline
210
0.0
220
0.0
230
1.0
 70
    11
 71
     3
 72
    20
 73
    16
 74
     0
 42
0.0000000001
 43
0.0000000001
 40
0.0
 40
0.0
 40
0.0
 40
0.0
 40
0.25
 40
0.25
 40
0.25
 40
0.25
 40
0.5
 40
0.5
 40
0.5
 40
0.5
 40
0.75
 40
0.75
 40
0.75
 40
0.75
 40
1.0
 40
1.0
 40
1.0
 40
1.0
 10
-1.12489
 20
6.45077
 30
0.0
 10
-1.12489
 20
6.45077
 30
0.0
 10
-2.05233
 20
6.45077
 30
0.0
 10
-2.05233
 20
6.45077
 30
0.0
 10
-2.05233
 20
6.45077
 30
0.0
 10
-2.05233
 20
6.45077
 30
0.0
 10
-1.46059
 20
7.32291
 30
0.0
 10
-1.46059
 20
7.32291
 30
0.0
 10
-1.46059
 20
7.32291
 30
0.0
 10
-1.46059
 20
7.32291
 30
0.0
 10
-0.53319
 20
7.32291
 30
0.0
 10
-0.53319
 20
7.32291
 30
0.0
 10
-0.53319
 20
7.32291
 30
0.0
 10
-0.53319
 20
7.32291
 30
0.0
 10
-1.12489
 20
6.45077
 30
0.0
 10
-1.12489
 20
6.45077
 30
0.0
  0
SPLINE
  5
A0
330
1F
100
AcDbEntity
  8
Warstwa 1
 62
   254
100
AcDbSpline
210
0.0
220
0.0
230
1.0
 70
    11
 71
     3
 72
    20
 73
    16
 74
     0
 42
0.0000000001
 43
0.0000000001
 40
0.0
 40
0.0
 40
0.0
 40
0.0
 40
0.25
 40
0.25
 40
0.25
 40
0.25
 40
0.5
 40
0.5
 40
0.5
 40
0.5
 40
0.75
 40
0.75
 40
0.75
 40
0.75
 40
1.0
 40
1.0
 40
1.0
 40
1.0
 10
-1.44442
 20
7.34729
 30
0.0
 10
-1.44442
 20
7.34729
 30
0.0
 10
-2.42875
 20
7.34729
 30
0.0
 10
-2.42875
 20
7.34729
 30
0.0
 10
-2.42875
 20
7.34729
 30
0.0
 10
-2.42875
 20
7.34729
 30
0.0
 10
-3.05465
 20
6.4256
 30
0.0
 10
-3.05465
 20
6.4256
 30
0.0
 10
-3.05465
 20
6.4256
 30
0.0
 10
-3.05465
 20
6.4256
 30
0.0
 10
-2.06923
 20
6.4256
 30
0.0
 10
-2.06923
 20
6.4256
 30
0.0
 10
-2.06923
 20
6.4256
 30
0.0
 10
-2.06923
 20
6.4256
 30
0.0
 10
-1.44442
 20
7.34729
 30
0.0
 10
-1.44442
 20
7.34729
 30
0.0
  0
SPLINE
  5
A1
330
1F
100
AcDbEntity
  8
Warstwa 1
 62
   250
100
AcDbSpline
210
0.0
220
0.0
230
1.0
 70
    11
 71
     3
 72
    20
 73
    16
 74
     0
 42
0.0000000001
 43
0.0000000001
 40
0.0
 40
0.0
 40
0.0
 40
0.0
 40
0.25
 40
0.25
 40
0.25
 40
0.25
 40
0.5
 40
0.5
 40
0.5
 40
0.5
 40
0.75
 40
0.75
 40
0.75
 40
0.75
 40
1.0
 40
1.0
 40
1.0
 40
1.0
 10
-2.08095
 20
6.45077
 30
0.0
 10
-2.08095
 20
6.45077
 30
0.0
 10
-3.00839
 20
6.45077
 30
0.0
 10
-3.00839
 20
6.45077
 30
0.0
 10
-3.00839
 20
6.45077
 30
0.0
 10
-3.00839
 20
6.45077
 30
0.0
 10
-2.41665
 20
7.32291
 30
0.0
 10
-2.41665
 20
7.32291
 30
0.0
 10
-2.41665
 20
7.32291
 30
0.0
 10
-2.41665
 20
7.32291
 30
0.0
 10
-1.48925
 20
7.32291
 30
0.0
 10
-1.48925
 20
7.32291
 30
0.0
 10
-1.48925
 20
7.32291
 30
0.0
 10
-1.48925
 20
7.32291
 30
0.0
 10
-2.08095
 20
6.45077
 30
0.0
 10
-2.08095
 20
6.45077
 30
0.0
  0
SPLINE
  5
A2
330
1F
100
AcDbEntity
  8
Warstwa 1
 62
     7
100
AcDbSpline
210
0.0
220
0.0
230
1.0
 70
    11
 71
     3
 72
    40
 73
    36
 74
     0
 42
0.0000000001
 43
0.0000000001
 40
0.0
 40
0.0
 40
0.0
 40
0.0
 40
0.1111111111111111
 40
0.1111111111111111
 40
0.1111111111111111
 40
0.1111111111111111
 40
0.2222222222222222
 40
0.2222222222222222
 40
0.2222222222222222
 40
0.2222222222222222
 40
0.3333333333333333
 40
0.3333333333333333
 40
0.3333333333333333
 40
0.3333333333333333
 40
0.4444444444444444
 40
0.4444444444444444
 40
0.4444444444444444
 40
0.4444444444444444
 40
0.5555555555555556
 40
0.5555555555555556
 40
0.5555555555555556
 40
0.5555555555555556
 40
0.6666666666666667
 40
0.6666666666666667
 40
0.6666666666666667
 40
0.6666666666666667
 40
0.7777777777777779
 40
0.7777777777777779
 40
0.7777777777777779
 40
0.7777777777777779
 40
0.8888888888888891
 40
0.8888888888888891
 40
0.8888888888888891
 40
0.8888888888888891
 40
1.0
 40
1.0
 40
1.0
 40
1.0
 10
-2.42692
 20
7.24532
 30
0.0
 10
-2.42692
 20
7.24532
 30
0.0
 10
-2.24054
 20
7.24532
 30
0.0
 10
-2.24054
 20
7.24532
 30
0.0
 10
-2.24054
 20
7.24532
 30
0.0
 10
-2.24054
 20
7.24532
 30
0.0
 10
-1.72971
 20
6.52313
 30
0.0
 10
-1.72971
 20
6.52313
 30
0.0
 10
-1.72971
 20
6.52313
 30
0.0
 10
-1.72971
 20
6.52313
 30
0.0
 10
-1.91743
 20
6.52313
 30
0.0
 10
-1.91743
 20
6.52313
 30
0.0
 10
-1.91743
 20
6.52313
 30
0.0
 10
-1.91743
 20
6.52313
 30
0.0
 10
-1.99596
 20
6.63662
 30
0.0
 10
-1.99596
 20
6.63662
 30
0.0
 10
-1.99596
 20
6.63662
 30
0.0
 10
-1.99596
 20
6.63662
 30
0.0
 10
-2.53336
 20
6.63662
 30
0.0
 10
-2.53336
 20
6.63662
 30
0.0
 10
-2.53336
 20
6.63662
 30
0.0
 10
-2.53336
 20
6.63662
 30
0.0
 10
-2.61614
 20
6.52313
 30
0.0
 10
-2.61614
 20
6.52313
 30
0.0
 10
-2.61614
 20
6.52313
 30
0.0
 10
-2.61614
 20
6.52313
 30
0.0
 10
-2.803
 20
6.52313
 30
0.0
 10
-2.803
 20
6.52313
 30
0.0
 10
-2.803
 20
6.52313
 30
0.0
 10
-2.803
 20
6.52313
 30
0.0
 10
-2.36305
 20
7.15914
 30
0.0
 10
-2.36305
 20
7.15914
 30
0.0
 10
-2.36305
 20
7.15914
 30
0.0
 10
-2.36305
 20
7.15914
 30
0.0
 10
-2.42692
 20
7.24532
 30
0.0
 10
-2.42692
 20
7.24532
 30
0.0
  0
SPLINE
  5
A3
330
1F
100
AcDbEntity
  8
Warstwa 1
 62
     7
100
AcDbSpline
210
0.0
220
0.0
230
1.0
 70
    11
 71
     3
 72
    16
 73
    12
 74
     0
 42
0.0000000001
 43
0.0000000001
 40
0.0
 40
0.0
 40
0.0
 40
0.0
 40
0.3333333333333333
 40
0.3333333333333333
 40
0.3333333333333333
 40
0.3333333333333333
 40
0.6666666666666666
 40
0.6666666666666666
 40
0.6666666666666666
 40
0.6666666666666666
 40
1.0
 40
1.0
 40
1.0
 40
1.0
 10
-2.26788
 20
7.017
 30
0.0
 10
-2.26788
 20
7.017
 30
0.0
 10
-2.0873
 20
6.7576
 30
0.0
 10
-2.0873
 20
6.7576
 30
0.0
 10
-2.0873
 20
6.7576
 30
0.0
 10
-2.0873
 20
6.7576
 30
0.0
 10
-2.44987
 20
6.7576
 30
0.0
 10
-2.44987
 20
6.7576
 30
0.0
 10
-2.44987
 20
6.7576
 30
0.0
 10
-2.44987
 20
6.7576
 30
0.0
 10
-2.26788
 20
7.017
 30
0.0
 10
-2.26788
 20
7.017
 30
0.0
  0
SPLINE
  5
A4
330
1F
100
AcDbEntity
  8
Warstwa 1
 62
     7
100
AcDbSpline
210
0.0
220
0.0
230
1.0
 70
    11
 71
     3
 72
    68
 73
    64
 74
     0
 42
0.0000000001
 43
0.0000000001
 40
0.0
 40
0.0
 40
0.0
 40
0.0
 40
0.0625
 40
0.0625
 40
0.0625
 40
0.0625
 40
0.125
 40
0.125
 40
0.125
 40
0.125
 40
0.1875
 40
0.1875
 40
0.1875
 40
0.1875
 40
0.25
 40
0.25
 40
0.25
 40
0.25
 40
0.3125
 40
0.3125
 40
0.3125
 40
0.3125
 40
0.375
 40
0.375
 40
0.375
 40
0.375
 40
0.4375
 40
0.4375
 40
0.4375
 40
0.4375
 40
0.5
 40
0.5
 40
0.5
 40
0.5
 40
0.5625
 40
0.5625
 40
0.5625
 40
0.5625
 40
0.625
 40
0.625
 40
0.625
 40
0.625
 40
0.6875
 40
0.6875
 40
0.6875
 40
0.6875
 40
0.75
 40
0.75
 40
0.75
 40
0.75
 40
0.8125
 40
0.8125
 40
0.8125
 40
0.8125
 40
0.875
 40
0.875
 40
0.875
 40
0.875
 40
0.9375
 40
0.9375
 40
0.9375
 40
0.9375
 40
1.0
 40
1.0
 40
1.0
 40
1.0
 10
-1.16053
 20
6.84945
 30
0.0
 10
-1.16053
 20
6.84945
 30
0.0
 10
-1.04458
 20
6.84945
 30
0.0
 10
-1.04458
 20
6.84945
 30
0.0
 10
-1.04458
 20
6.84945
 30
0.0
 10
-1.04458
 20
6.9168
 30
0.0
 10
-1.10017
 20
6.98385
 30
0.0
 10
-1.18018
 20
6.98271
 30
0.0
 10
-1.18018
 20
6.98271
 30
0.0
 10
-1.18018
 20
6.98271
 30
0.0
 10
-1.59961
 20
6.9767
 30
0.0
 10
-1.59961
 20
6.9767
 30
0.0
 10
-1.59961
 20
6.9767
 30
0.0
 10
-1.67048
 20
6.97569
 30
0.0
 10
-1.7322
 20
6.92273
 30
0.0
 10
-1.7322
 20
6.87071
 30
0.0
 10
-1.7322
 20
6.87071
 30
0.0
 10
-1.7322
 20
6.87071
 30
0.0
 10
-1.7322
 20
6.63833
 30
0.0
 10
-1.7322
 20
6.63833
 30
0.0
 10
-1.7322
 20
6.63833
 30
0.0
 10
-1.7322
 20
6.58635
 30
0.0
 10
-1.66352
 20
6.52313
 30
0.0
 10
-1.61151
 20
6.52313
 30
0.0
 10
-1.61151
 20
6.52313
 30
0.0
 10
-1.61151
 20
6.52313
 30
0.0
 10
-1.18165
 20
6.52319
 30
0.0
 10
-1.18165
 20
6.52319
 30
0.0
 10
-1.18165
 20
6.52319
 30
0.0
 10
-1.12995
 20
6.52319
 30
0.0
 10
-1.04458
 20
6.58168
 30
0.0
 10
-1.04458
 20
6.63339
 30
0.0
 10
-1.04458
 20
6.63339
 30
0.0
 10
-1.04458
 20
6.63339
 30
0.0
 10
-1.04458
 20
6.69728
 30
0.0
 10
-1.04458
 20
6.69728
 30
0.0
 10
-1.04458
 20
6.69728
 30
0.0
 10
-1.04458
 20
6.74886
 30
0.0
 10
-1.11543
 20
6.80831
 30
0.0
 10
-1.16698
 20
6.80832
 30
0.0
 10
-1.16698
 20
6.80832
 30
0.0
 10
-1.16698
 20
6.80832
 30
0.0
 10
-1.57111
 20
6.80843
 30
0.0
 10
-1.57111
 20
6.80843
 30
0.0
 10
-1.57111
 20
6.80843
 30
0.0
 10
-1.58983
 20
6.80843
 30
0.0
 10
-1.61486
 20
6.79964
 30
0.0
 10
-1.61486
 20
6.78676
 30
0.0
 10
-1.61486
 20
6.78676
 30
0.0
 10
-1.61486
 20
6.78676
 30
0.0
 10
-1.61486
 20
6.83797
 30
0.0
 10
-1.61486
 20
6.83797
 30
0.0
 10
-1.61486
 20
6.83797
 30
0.0
 10
-1.61486
 20
6.86412
 30
0.0
 10
-1.58152
 20
6.89019
 30
0.0
 10
-1.55536
 20
6.89019
 30
0.0
 10
-1.55536
 20
6.89019
 30
0.0
 10
-1.55536
 20
6.89019
 30
0.0
 10
-1.21417
 20
6.89019
 30
0.0
 10
-1.21417
 20
6.89019
 30
0.0
 10
-1.21417
 20
6.89019
 30
0.0
 10
-1.18007
 20
6.89019
 30
0.0
 10
-1.16053
 20
6.85896
 30
0.0
 10
-1.16053
 20
6.84945
 30
0.0
  0
SPLINE
  5
A5
330
1F
100
AcDbEntity
  8
Warstwa 1
 62
     7
100
AcDbSpline
210
0.0
220
0.0
230
1.0
 70
    11
 71
     3
 72
    20
 73
    16
 74
     0
 42
0.0000000001
 43
0.0000000001
 40
0.0
 40
0.0
 40
0.0
 40
0.0
 40
0.25
 40
0.25
 40
0.25
 40
0.25
 40
0.5
 40
0.5
 40
0.5
 40
0.5
 40
0.75
 40
0.75
 40
0.75
 40
0.75
 40
1.0
 40
1.0
 40
1.0
 40
1.0
 10
-1.54683
 20
6.71956
 30
0.0
 10
-1.54683
 20
6.71956
 30
0.0
 10
-1.231
 20
6.71956
 30
0.0
 10
-1.231
 20
6.71956
 30
0.0
 10
-1.231
 20
6.71956
 30
0.0
 10
-1.14939
 20
6.71956
 30
0.0
 10
-1.14837
 20
6.62222
 30
0.0
 10
-1.231
 20
6.62222
 30
0.0
 10
-1.231
 20
6.62222
 30
0.0
 10
-1.231
 20
6.62222
 30
0.0
 10
-1.54684
 20
6.62222
 30
0.0
 10
-1.54684
 20
6.62222
 30
0.0
 10
-1.54684
 20
6.62222
 30
0.0
 10
-1.61872
 20
6.62222
 30
0.0
 10
-1.622
 20
6.71956
 30
0.0
 10
-1.54683
 20
6.71956
 30
0.0
  0
SPLINE
  5
A6
330
1F
100
AcDbEntity
  8
Warstwa 1
 62
   250
100
AcDbSpline
210
0.0
220
0.0
230
1.0
 70
    11
 71
     3
 72
    48
 73
    44
 74
     0
 42
0.0000000001
 43
0.0000000001
 40
0.0
 40
0.0
 40
0.0
 40
0.0
 40
0.0909090909090909
 40
0.0909090909090909
 40
0.0909090909090909
 40
0.0909090909090909
 40
0.1818181818181818
 40
0.1818181818181818
 40
0.1818181818181818
 40
0.1818181818181818
 40
0.2727272727272727
 40
0.2727272727272727
 40
0.2727272727272727
 40
0.2727272727272727
 40
0.3636363636363636
 40
0.3636363636363636
 40
0.3636363636363636
 40
0.3636363636363636
 40
0.4545454545454546
 40
0.4545454545454546
 40
0.4545454545454546
 40
0.4545454545454546
 40
0.5454545454545455
 40
0.5454545454545455
 40
0.5454545454545455
 40
0.5454545454545455
 40
0.6363636363636365
 40
0.6363636363636365
 40
0.6363636363636365
 40
0.6363636363636365
 40
0.7272727272727274
 40
0.7272727272727274
 40
0.7272727272727274
 40
0.7272727272727274
 40
0.8181818181818183
 40
0.8181818181818183
 40
0.8181818181818183
 40
0.8181818181818183
 40
0.9090909090909093
 40
0.9090909090909093
 40
0.9090909090909093
 40
0.9090909090909093
 40
1.0
 40
1.0
 40
1.0
 40
1.0
 10
-0.04539
 20
6.97488
 30
0.0
 10
-0.04539
 20
6.97488
 30
0.0
 10
-0.41216
 20
6.73579
 30
0.0
 10
-0.41216
 20
6.73579
 30
0.0
 10
-0.41216
 20
6.73579
 30
0.0
 10
-0.41216
 20
6.73579
 30
0.0
 10
-0.17459
 20
6.45023
 30
0.0
 10
-0.17459
 20
6.45023
 30
0.0
 10
-0.17459
 20
6.45023
 30
0.0
 10
-0.17459
 20
6.45023
 30
0.0
 10
-0.3376
 20
6.45023
 30
0.0
 10
-0.3376
 20
6.45023
 30
0.0
 10
-0.3376
 20
6.45023
 30
0.0
 10
-0.3376
 20
6.45023
 30
0.0
 10
-0.55697
 20
6.7208
 30
0.0
 10
-0.55697
 20
6.7208
 30
0.0
 10
-0.55697
 20
6.7208
 30
0.0
 10
-0.55697
 20
6.7208
 30
0.0
 10
-0.62373
 20
6.45023
 30
0.0
 10
-0.62373
 20
6.45023
 30
0.0
 10
-0.62373
 20
6.45023
 30
0.0
 10
-0.62373
 20
6.45023
 30
0.0
 10
-0.75986
 20
6.45023
 30
0.0
 10
-0.75986
 20
6.45023
 30
0.0
 10
-0.75986
 20
6.45023
 30
0.0
 10
-0.75986
 20
6.45023
 30
0.0
 10
-0.63067
 20
6.97488
 30
0.0
 10
-0.63067
 20
6.97488
 30
0.0
 10
-0.63067
 20
6.97488
 30
0.0
 10
-0.63067
 20
6.97488
 30
0.0
 10
-0.4954
 20
6.97488
 30
0.0
 10
-0.4954
 20
6.97488
 30
0.0
 10
-0.4954
 20
6.97488
 30
0.0
 10
-0.4954
 20
6.97488
 30
0.0
 10
-0.55002
 20
6.75153
 30
0.0
 10
-0.55002
 20
6.75153
 30
0.0
 10
-0.55002
 20
6.75153
 30
0.0
 10
-0.55002
 20
6.75153
 30
0.0
 10
-0.23961
 20
6.97488
 30
0.0
 10
-0.23961
 20
6.97488
 30
0.0
 10
-0.23961
 20
6.97488
 30
0.0
 10
-0.23961
 20
6.97488
 30
0.0
 10
-0.04539
 20
6.97488
 30
0.0
 10
-0.04539
 20
6.97488
 30
0.0
  0
SPLINE
  5
A7
330
1F
100
AcDbEntity
  8
Warstwa 1
 62
   250
100
AcDbSpline
210
0.0
220
0.0
230
1.0
 70
    11
 71
     3
 72
    28
 73
    24
 74
     0
 42
0.0000000001
 43
0.0000000001
 40
0.0
 40
0.0
 40
0.0
 40
0.0
 40
0.1666666666666667
 40
0.1666666666666667
 40
0.1666666666666667
 40
0.1666666666666667
 40
0.3333333333333333
 40
0.3333333333333333
 40
0.3333333333333333
 40
0.3333333333333333
 40
0.5
 40
0.5
 40
0.5
 40
0.5
 40
0.6666666666666666
 40
0.6666666666666666
 40
0.6666666666666666
 40
0.6666666666666666
 40
0.8333333333333333
 40
0.8333333333333333
 40
0.8333333333333333
 40
0.8333333333333333
 40
1.0
 40
1.0
 40
1.0
 40
1.0
 10
0.38554
 20
6.53492
 30
0.0
 10
0.38554
 20
6.53492
 30
0.0
 10
0.36473
 20
6.45023
 30
0.0
 10
0.36473
 20
6.45023
 30
0.0
 10
0.36473
 20
6.45023
 30
0.0
 10
0.36473
 20
6.45023
 30
0.0
 10
-0.09308
 20
6.45023
 30
0.0
 10
-0.09308
 20
6.45023
 30
0.0
 10
-0.09308
 20
6.45023
 30
0.0
 10
-0.09308
 20
6.45023
 30
0.0
 10
0.03611
 20
6.97488
 30
0.0
 10
0.03611
 20
6.97488
 30
0.0
 10
0.03611
 20
6.97488
 30
0.0
 10
0.03611
 20
6.97488
 30
0.0
 10
0.17138
 20
6.97488
 30
0.0
 10
0.17138
 20
6.97488
 30
0.0
 10
0.17138
 20
6.97488
 30
0.0
 10
0.17138
 20
6.97488
 30
0.0
 10
0.063
 20
6.53492
 30
0.0
 10
0.063
 20
6.53492
 30
0.0
 10
0.063
 20
6.53492
 30
0.0
 10
0.063
 20
6.53492
 30
0.0
 10
0.38554
 20
6.53492
 30
0.0
 10
0.38554
 20
6.53492
 30
0.0
  0
SPLINE
  5
A8
330
1F
100
AcDbEntity
  8
Warstwa 1
 62
   250
100
AcDbSpline
210
0.0
220
0.0
230
1.0
 70
    11
 71
     3
 72
    56
 73
    52
 74
     0
 42
0.0000000001
 43
0.0000000001
 40
0.0
 40
0.0
 40
0.0
 40
0.0
 40
0.0769230769230769
 40
0.0769230769230769
 40
0.0769230769230769
 40
0.0769230769230769
 40
0.1538461538461539
 40
0.1538461538461539
 40
0.1538461538461539
 40
0.1538461538461539
 40
0.2307692307692308
 40
0.2307692307692308
 40
0.2307692307692308
 40
0.2307692307692308
 40
0.3076923076923077
 40
0.3076923076923077
 40
0.3076923076923077
 40
0.3076923076923077
 40
0.3846153846153846
 40
0.3846153846153846
 40
0.3846153846153846
 40
0.3846153846153846
 40
0.4615384615384616
 40
0.4615384615384616
 40
0.4615384615384616
 40
0.4615384615384616
 40
0.5384615384615385
 40
0.5384615384615385
 40
0.5384615384615385
 40
0.5384615384615385
 40
0.6153846153846154
 40
0.6153846153846154
 40
0.6153846153846154
 40
0.6153846153846154
 40
0.6923076923076923
 40
0.6923076923076923
 40
0.6923076923076923
 40
0.6923076923076923
 40
0.7692307692307692
 40
0.7692307692307692
 40
0.7692307692307692
 40
0.7692307692307692
 40
0.846153846153846
 40
0.846153846153846
 40
0.846153846153846
 40
0.846153846153846
 40
0.9230769230769229
 40
0.9230769230769229
 40
0.9230769230769229
 40
0.9230769230769229
 40
1.0
 40
1.0
 40
1.0
 40
1.0
 10
1.1633
 20
6.97488
 30
0.0
 10
1.1633
 20
6.97488
 30
0.0
 10
1.0844
 20
6.65634
 30
0.0
 10
1.0844
 20
6.65634
 30
0.0
 10
1.0844
 20
6.65634
 30
0.0
 10
1.04856
 20
6.51144
 30
0.0
 10
0.93671
 20
6.43899
 30
0.0
 10
0.74884
 20
6.43899
 30
0.0
 10
0.74884
 20
6.43899
 30
0.0
 10
0.66561
 20
6.43899
 30
0.0
 10
0.6
 20
6.45573
 30
0.0
 10
0.55201
 20
6.4892
 30
0.0
 10
0.55201
 20
6.4892
 30
0.0
 10
0.50577
 20
6.52118
 30
0.0
 10
0.48265
 20
6.56315
 30
0.0
 10
0.48265
 20
6.61512
 30
0.0
 10
0.48265
 20
6.61512
 30
0.0
 10
0.48265
 20
6.62861
 30
0.0
 10
0.48438
 20
6.64235
 30
0.0
 10
0.48785
 20
6.65634
 30
0.0
 10
0.48785
 20
6.65634
 30
0.0
 10
0.48785
 20
6.65634
 30
0.0
 10
0.56676
 20
6.97488
 30
0.0
 10
0.56676
 20
6.97488
 30
0.0
 10
0.56676
 20
6.97488
 30
0.0
 10
0.56676
 20
6.97488
 30
0.0
 10
0.70202
 20
6.97488
 30
0.0
 10
0.70202
 20
6.97488
 30
0.0
 10
0.70202
 20
6.97488
 30
0.0
 10
0.70202
 20
6.97488
 30
0.0
 10
0.62311
 20
6.65409
 30
0.0
 10
0.62311
 20
6.65409
 30
0.0
 10
0.62311
 20
6.65409
 30
0.0
 10
0.62022
 20
6.6416
 30
0.0
 10
0.61879
 20
6.62986
 30
0.0
 10
0.61879
 20
6.61887
 30
0.0
 10
0.61879
 20
6.61887
 30
0.0
 10
0.61879
 20
6.55591
 30
0.0
 10
0.66474
 20
6.52443
 30
0.0
 10
0.75665
 20
6.52443
 30
0.0
 10
0.75665
 20
6.52443
 30
0.0
 10
0.86358
 20
6.52443
 30
0.0
 10
0.92775
 20
6.56765
 30
0.0
 10
0.94914
 20
6.65409
 30
0.0
 10
0.94914
 20
6.65409
 30
0.0
 10
0.94914
 20
6.65409
 30
0.0
 10
1.02804
 20
6.97488
 30
0.0
 10
1.02804
 20
6.97488
 30
0.0
 10
1.02804
 20
6.97488
 30
0.0
 10
1.02804
 20
6.97488
 30
0.0
 10
1.1633
 20
6.97488
 30
0.0
 10
1.1633
 20
6.97488
 30
0.0
  0
SPLINE
  5
A9
330
1F
100
AcDbEntity
  8
Warstwa 1
 62
   250
100
AcDbSpline
210
0.0
220
0.0
230
1.0
 70
    11
 71
     3
 72
    48
 73
    44
 74
     0
 42
0.0000000001
 43
0.0000000001
 40
0.0
 40
0.0
 40
0.0
 40
0.0
 40
0.0909090909090909
 40
0.0909090909090909
 40
0.0909090909090909
 40
0.0909090909090909
 40
0.1818181818181818
 40
0.1818181818181818
 40
0.1818181818181818
 40
0.1818181818181818
 40
0.2727272727272727
 40
0.2727272727272727
 40
0.2727272727272727
 40
0.2727272727272727
 40
0.3636363636363636
 40
0.3636363636363636
 40
0.3636363636363636
 40
0.3636363636363636
 40
0.4545454545454546
 40
0.4545454545454546
 40
0.4545454545454546
 40
0.4545454545454546
 40
0.5454545454545455
 40
0.5454545454545455
 40
0.5454545454545455
 40
0.5454545454545455
 40
0.6363636363636365
 40
0.6363636363636365
 40
0.6363636363636365
 40
0.6363636363636365
 40
0.7272727272727274
 40
0.7272727272727274
 40
0.7272727272727274
 40
0.7272727272727274
 40
0.8181818181818183
 40
0.8181818181818183
 40
0.8181818181818183
 40
0.8181818181818183
 40
0.9090909090909093
 40
0.9090909090909093
 40
0.9090909090909093
 40
0.9090909090909093
 40
1.0
 40
1.0
 40
1.0
 40
1.0
 10
1.82141
 20
6.85796
 30
0.0
 10
1.82141
 20
6.82148
 30
0.0
 10
1.80667
 20
6.79125
 30
0.0
 10
1.77718
 20
6.76727
 30
0.0
 10
1.77718
 20
6.76727
 30
0.0
 10
1.74944
 20
6.74528
 30
0.0
 10
1.711
 20
6.73079
 30
0.0
 10
1.66187
 20
6.7238
 30
0.0
 10
1.66187
 20
6.7238
 30
0.0
 10
1.69366
 20
6.7183
 30
0.0
 10
1.72112
 20
6.70631
 30
0.0
 10
1.74424
 20
6.68782
 30
0.0
 10
1.74424
 20
6.68782
 30
0.0
 10
1.7691
 20
6.66684
 30
0.0
 10
1.78152
 20
6.64285
 30
0.0
 10
1.78152
 20
6.61587
 30
0.0
 10
1.78152
 20
6.61587
 30
0.0
 10
1.78152
 20
6.5774
 30
0.0
 10
1.76534
 20
6.54292
 30
0.0
 10
1.73297
 20
6.51244
 30
0.0
 10
1.73297
 20
6.51244
 30
0.0
 10
1.68903
 20
6.47097
 30
0.0
 10
1.62314
 20
6.45023
 30
0.0
 10
1.53527
 20
6.45023
 30
0.0
 10
1.53527
 20
6.45023
 30
0.0
 10
1.53527
 20
6.45023
 30
0.0
 10
1.18151
 20
6.45023
 30
0.0
 10
1.18151
 20
6.45023
 30
0.0
 10
1.18151
 20
6.45023
 30
0.0
 10
1.18151
 20
6.45023
 30
0.0
 10
1.3107
 20
6.97488
 30
0.0
 10
1.3107
 20
6.97488
 30
0.0
 10
1.3107
 20
6.97488
 30
0.0
 10
1.3107
 20
6.97488
 30
0.0
 10
1.62111
 20
6.97488
 30
0.0
 10
1.62111
 20
6.97488
 30
0.0
 10
1.62111
 20
6.97488
 30
0.0
 10
1.68065
 20
6.97488
 30
0.0
 10
1.72776
 20
6.96614
 30
0.0
 10
1.76244
 20
6.94865
 30
0.0
 10
1.76244
 20
6.94865
 30
0.0
 10
1.80175
 20
6.92866
 30
0.0
 10
1.82141
 20
6.89843
 30
0.0
 10
1.82141
 20
6.85796
 30
0.0
  0
SPLINE
  5
AA
330
1F
100
AcDbEntity
  8
Warstwa 1
 62
   250
100
AcDbSpline
210
0.0
220
0.0
230
1.0
 70
    11
 71
     3
 72
    32
 73
    28
 74
     0
 42
0.0000000001
 43
0.0000000001
 40
0.0
 40
0.0
 40
0.0
 40
0.0
 40
0.1428571428571428
 40
0.1428571428571428
 40
0.1428571428571428
 40
0.1428571428571428
 40
0.2857142857142857
 40
0.2857142857142857
 40
0.2857142857142857
 40
0.2857142857142857
 40
0.4285714285714285
 40
0.4285714285714285
 40
0.4285714285714285
 40
0.4285714285714285
 40
0.5714285714285714
 40
0.5714285714285714
 40
0.5714285714285714
 40
0.5714285714285714
 40
0.7142857142857142
 40
0.7142857142857142
 40
0.7142857142857142
 40
0.7142857142857142
 40
0.857142857142857
 40
0.857142857142857
 40
0.857142857142857
 40
0.857142857142857
 40
1.0
 40
1.0
 40
1.0
 40
1.0
 10
1.68181
 20
6.84896
 30
0.0
 10
1.68181
 20
6.86795
 30
0.0
 10
1.66881
 20
6.88044
 30
0.0
 10
1.64279
 20
6.88644
 30
0.0
 10
1.64279
 20
6.88644
 30
0.0
 10
1.63123
 20
6.88894
 30
0.0
 10
1.61187
 20
6.89019
 30
0.0
 10
1.5847
 20
6.89019
 30
0.0
 10
1.5847
 20
6.89019
 30
0.0
 10
1.5847
 20
6.89019
 30
0.0
 10
1.42516
 20
6.89019
 30
0.0
 10
1.42516
 20
6.89019
 30
0.0
 10
1.42516
 20
6.89019
 30
0.0
 10
1.42516
 20
6.89019
 30
0.0
 10
1.39395
 20
6.76502
 30
0.0
 10
1.39395
 20
6.76502
 30
0.0
 10
1.39395
 20
6.76502
 30
0.0
 10
1.39395
 20
6.76502
 30
0.0
 10
1.50666
 20
6.76502
 30
0.0
 10
1.50666
 20
6.76502
 30
0.0
 10
1.50666
 20
6.76502
 30
0.0
 10
1.56331
 20
6.76502
 30
0.0
 10
1.60261
 20
6.76852
 30
0.0
 10
1.62458
 20
6.77551
 30
0.0
 10
1.62458
 20
6.77551
 30
0.0
 10
1.66273
 20
6.78701
 30
0.0
 10
1.68181
 20
6.81149
 30
0.0
 10
1.68181
 20
6.84896
 30
0.0
  0
SPLINE
  5
AB
330
1F
100
AcDbEntity
  8
Warstwa 1
 62
   250
100
AcDbSpline
210
0.0
220
0.0
230
1.0
 70
    11
 71
     3
 72
    24
 73
    20
 74
     0
 42
0.0000000001
 43
0.0000000001
 40
0.0
 40
0.0
 40
0.0
 40
0.0
 40
0.2
 40
0.2
 40
0.2
 40
0.2
 40
0.4
 40
0.4
 40
0.4
 40
0.4
 40
0.6000000000000001
 40
0.6000000000000001
 40
0.6000000000000001
 40
0.6000000000000001
 40
0.8
 40
0.8
 40
0.8
 40
0.8
 40
1.0
 40
1.0
 40
1.0
 40
1.0
 10
1.64279
 20
6.62411
 30
0.0
 10
1.64279
 20
6.66159
 30
0.0
 10
1.60926
 20
6.68033
 30
0.0
 10
1.54221
 20
6.68033
 30
0.0
 10
1.54221
 20
6.68033
 30
0.0
 10
1.54221
 20
6.68033
 30
0.0
 10
1.37314
 20
6.68033
 30
0.0
 10
1.37314
 20
6.68033
 30
0.0
 10
1.37314
 20
6.68033
 30
0.0
 10
1.37314
 20
6.68033
 30
0.0
 10
1.33759
 20
6.53492
 30
0.0
 10
1.33759
 20
6.53492
 30
0.0
 10
1.33759
 20
6.53492
 30
0.0
 10
1.33759
 20
6.53492
 30
0.0
 10
1.47805
 20
6.53492
 30
0.0
 10
1.47805
 20
6.53492
 30
0.0
 10
1.47805
 20
6.53492
 30
0.0
 10
1.58787
 20
6.53492
 30
0.0
 10
1.64279
 20
6.56465
 30
0.0
 10
1.64279
 20
6.62411
 30
0.0
  0
SPLINE
  5
AC
330
1F
100
AcDbEntity
  8
Warstwa 1
 62
   250
100
AcDbSpline
210
0.0
220
0.0
230
1.0
 70
    11
 71
     3
 72
    20
 73
    16
 74
     0
 42
0.0000000001
 43
0.0000000001
 40
0.0
 40
0.0
 40
0.0
 40
0.0
 40
0.25
 40
0.25
 40
0.25
 40
0.25
 40
0.5
 40
0.5
 40
0.5
 40
0.5
 40
0.75
 40
0.75
 40
0.75
 40
0.75
 40
1.0
 40
1.0
 40
1.0
 40
1.0
 10
1.98007
 20
6.54767
 30
0.0
 10
1.98007
 20
6.54767
 30
0.0
 10
1.9558
 20
6.45023
 30
0.0
 10
1.9558
 20
6.45023
 30
0.0
 10
1.9558
 20
6.45023
 30
0.0
 10
1.9558
 20
6.45023
 30
0.0
 10
1.83875
 20
6.45023
 30
0.0
 10
1.83875
 20
6.45023
 30
0.0
 10
1.83875
 20
6.45023
 30
0.0
 10
1.83875
 20
6.45023
 30
0.0
 10
1.86302
 20
6.54767
 30
0.0
 10
1.86302
 20
6.54767
 30
0.0
 10
1.86302
 20
6.54767
 30
0.0
 10
1.86302
 20
6.54767
 30
0.0
 10
1.98007
 20
6.54767
 30
0.0
 10
1.98007
 20
6.54767
 30
0.0
  0
SPLINE
  5
AD
330
1F
100
AcDbEntity
  8
Warstwa 1
 62
   250
100
AcDbSpline
210
0.0
220
0.0
230
1.0
 70
    11
 71
     3
 72
    40
 73
    36
 74
     0
 42
0.0000000001
 43
0.0000000001
 40
0.0
 40
0.0
 40
0.0
 40
0.0
 40
0.1111111111111111
 40
0.1111111111111111
 40
0.1111111111111111
 40
0.1111111111111111
 40
0.2222222222222222
 40
0.2222222222222222
 40
0.2222222222222222
 40
0.2222222222222222
 40
0.3333333333333333
 40
0.3333333333333333
 40
0.3333333333333333
 40
0.3333333333333333
 40
0.4444444444444444
 40
0.4444444444444444
 40
0.4444444444444444
 40
0.4444444444444444
 40
0.5555555555555556
 40
0.5555555555555556
 40
0.5555555555555556
 40
0.5555555555555556
 40
0.6666666666666667
 40
0.6666666666666667
 40
0.6666666666666667
 40
0.6666666666666667
 40
0.7777777777777779
 40
0.7777777777777779
 40
0.7777777777777779
 40
0.7777777777777779
 40
0.8888888888888891
 40
0.8888888888888891
 40
0.8888888888888891
 40
0.8888888888888891
 40
1.0
 40
1.0
 40
1.0
 40
1.0
 10
2.72228
 20
6.85496
 30
0.0
 10
2.72228
 20
6.7915
 30
0.0
 10
2.69425
 20
6.74154
 30
0.0
 10
2.63818
 20
6.70506
 30
0.0
 10
2.63818
 20
6.70506
 30
0.0
 10
2.58615
 20
6.67158
 30
0.0
 10
2.51881
 20
6.65484
 30
0.0
 10
2.43615
 20
6.65484
 30
0.0
 10
2.43615
 20
6.65484
 30
0.0
 10
2.43615
 20
6.65484
 30
0.0
 10
2.27574
 20
6.65484
 30
0.0
 10
2.27574
 20
6.65484
 30
0.0
 10
2.27574
 20
6.65484
 30
0.0
 10
2.27574
 20
6.65484
 30
0.0
 10
2.22545
 20
6.45023
 30
0.0
 10
2.22545
 20
6.45023
 30
0.0
 10
2.22545
 20
6.45023
 30
0.0
 10
2.22545
 20
6.45023
 30
0.0
 10
2.09019
 20
6.45023
 30
0.0
 10
2.09019
 20
6.45023
 30
0.0
 10
2.09019
 20
6.45023
 30
0.0
 10
2.09019
 20
6.45023
 30
0.0
 10
2.21938
 20
6.97488
 30
0.0
 10
2.21938
 20
6.97488
 30
0.0
 10
2.21938
 20
6.97488
 30
0.0
 10
2.21938
 20
6.97488
 30
0.0
 10
2.52892
 20
6.97488
 30
0.0
 10
2.52892
 20
6.97488
 30
0.0
 10
2.52892
 20
6.97488
 30
0.0
 10
2.58673
 20
6.97488
 30
0.0
 10
2.63341
 20
6.96414
 30
0.0
 10
2.66896
 20
6.94265
 30
0.0
 10
2.66896
 20
6.94265
 30
0.0
 10
2.70451
 20
6.92117
 30
0.0
 10
2.72228
 20
6.89194
 30
0.0
 10
2.72228
 20
6.85496
 30
0.0
  0
SPLINE
  5
AE
330
1F
100
AcDbEntity
  8
Warstwa 1
 62
   250
100
AcDbSpline
210
0.0
220
0.0
230
1.0
 70
    11
 71
     3
 72
    24
 73
    20
 74
     0
 42
0.0000000001
 43
0.0000000001
 40
0.0
 40
0.0
 40
0.0
 40
0.0
 40
0.2
 40
0.2
 40
0.2
 40
0.2
 40
0.4
 40
0.4
 40
0.4
 40
0.4
 40
0.6000000000000001
 40
0.6000000000000001
 40
0.6000000000000001
 40
0.6000000000000001
 40
0.8
 40
0.8
 40
0.8
 40
0.8
 40
1.0
 40
1.0
 40
1.0
 40
1.0
 10
2.57575
 20
6.83248
 30
0.0
 10
2.57575
 20
6.87095
 30
0.0
 10
2.54684
 20
6.89019
 30
0.0
 10
2.48905
 20
6.89019
 30
0.0
 10
2.48905
 20
6.89019
 30
0.0
 10
2.48905
 20
6.89019
 30
0.0
 10
2.33384
 20
6.89019
 30
0.0
 10
2.33384
 20
6.89019
 30
0.0
 10
2.33384
 20
6.89019
 30
0.0
 10
2.33384
 20
6.89019
 30
0.0
 10
2.29656
 20
6.74029
 30
0.0
 10
2.29656
 20
6.74029
 30
0.0
 10
2.29656
 20
6.74029
 30
0.0
 10
2.29656
 20
6.74029
 30
0.0
 10
2.43442
 20
6.74029
 30
0.0
 10
2.43442
 20
6.74029
 30
0.0
 10
2.43442
 20
6.74029
 30
0.0
 10
2.52863
 20
6.74029
 30
0.0
 10
2.57575
 20
6.77102
 30
0.0
 10
2.57575
 20
6.83248
 30
0.0
  0
SPLINE
  5
AF
330
1F
100
AcDbEntity
  8
Warstwa 1
 62
   250
100
AcDbSpline
210
0.0
220
0.0
230
1.0
 70
    11
 71
     3
 72
    28
 73
    24
 74
     0
 42
0.0000000001
 43
0.0000000001
 40
0.0
 40
0.0
 40
0.0
 40
0.0
 40
0.1666666666666667
 40
0.1666666666666667
 40
0.1666666666666667
 40
0.1666666666666667
 40
0.3333333333333333
 40
0.3333333333333333
 40
0.3333333333333333
 40
0.3333333333333333
 40
0.5
 40
0.5
 40
0.5
 40
0.5
 40
0.6666666666666666
 40
0.6666666666666666
 40
0.6666666666666666
 40
0.6666666666666666
 40
0.8333333333333333
 40
0.8333333333333333
 40
0.8333333333333333
 40
0.8333333333333333
 40
1.0
 40
1.0
 40
1.0
 40
1.0
 10
3.20524
 20
6.53492
 30
0.0
 10
3.20524
 20
6.53492
 30
0.0
 10
3.18443
 20
6.45023
 30
0.0
 10
3.18443
 20
6.45023
 30
0.0
 10
3.18443
 20
6.45023
 30
0.0
 10
3.18443
 20
6.45023
 30
0.0
 10
2.72662
 20
6.45023
 30
0.0
 10
2.72662
 20
6.45023
 30
0.0
 10
2.72662
 20
6.45023
 30
0.0
 10
2.72662
 20
6.45023
 30
0.0
 10
2.85581
 20
6.97488
 30
0.0
 10
2.85581
 20
6.97488
 30
0.0
 10
2.85581
 20
6.97488
 30
0.0
 10
2.85581
 20
6.97488
 30
0.0
 10
2.99108
 20
6.97488
 30
0.0
 10
2.99108
 20
6.97488
 30
0.0
 10
2.99108
 20
6.97488
 30
0.0
 10
2.99108
 20
6.97488
 30
0.0
 10
2.8827
 20
6.53492
 30
0.0
 10
2.8827
 20
6.53492
 30
0.0
 10
2.8827
 20
6.53492
 30
0.0
 10
2.8827
 20
6.53492
 30
0.0
 10
3.20524
 20
6.53492
 30
0.0
 10
3.20524
 20
6.53492
 30
0.0
  0
SPLINE
  5
B0
330
1F
100
AcDbEntity
  8
Warstwa 1
 62
     7
100
AcDbSpline
210
0.0
220
0.0
230
1.0
 70
    11
 71
     3
 72
    68
 73
    64
 74
     0
 42
0.0000000001
 43
0.0000000001
 40
0.0
 40
0.0
 40
0.0
 40
0.0
 40
0.0625
 40
0.0625
 40
0.0625
 40
0.0625
 40
0.125
 40
0.125
 40
0.125
 40
0.125
 40
0.1875
 40
0.1875
 40
0.1875
 40
0.1875
 40
0.25
 40
0.25
 40
0.25
 40
0.25
 40
0.3125
 40
0.3125
 40
0.3125
 40
0.3125
 40
0.375
 40
0.375
 40
0.375
 40
0.375
 40
0.4375
 40
0.4375
 40
0.4375
 40
0.4375
 40
0.5
 40
0.5
 40
0.5
 40
0.5
 40
0.5625
 40
0.5625
 40
0.5625
 40
0.5625
 40
0.625
 40
0.625
 40
0.625
 40
0.625
 40
0.6875
 40
0.6875
 40
0.6875
 40
0.6875
 40
0.75
 40
0.75
 40
0.75
 40
0.75
 40
0.8125
 40
0.8125
 40
0.8125
 40
0.8125
 40
0.875
 40
0.875
 40
0.875
 40
0.875
 40
0.9375
 40
0.9375
 40
0.9375
 40
0.9375
 40
1.0
 40
1.0
 40
1.0
 40
1.0
 10
-1.74351
 20
7.24532
 30
0.0
 10
-1.76115
 20
7.24532
 30
0.0
 10
-1.77734
 20
7.23927
 30
0.0
 10
-1.79018
 20
7.22912
 30
0.0
 10
-1.79018
 20
7.22912
 30
0.0
 10
-1.80301
 20
7.23927
 30
0.0
 10
-1.81921
 20
7.24532
 30
0.0
 10
-1.83685
 20
7.24532
 30
0.0
 10
-1.83685
 20
7.24532
 30
0.0
 10
-1.85447
 20
7.24532
 30
0.0
 10
-1.87068
 20
7.23927
 30
0.0
 10
-1.88351
 20
7.22912
 30
0.0
 10
-1.88351
 20
7.22912
 30
0.0
 10
-1.89635
 20
7.23927
 30
0.0
 10
-1.91254
 20
7.24532
 30
0.0
 10
-1.93017
 20
7.24532
 30
0.0
 10
-1.93017
 20
7.24532
 30
0.0
 10
-1.94781
 20
7.24532
 30
0.0
 10
-1.96401
 20
7.23927
 30
0.0
 10
-1.97684
 20
7.22912
 30
0.0
 10
-1.97684
 20
7.22912
 30
0.0
 10
-1.98967
 20
7.23927
 30
0.0
 10
-2.00587
 20
7.24532
 30
0.0
 10
-2.0235
 20
7.24532
 30
0.0
 10
-2.0235
 20
7.24532
 30
0.0
 10
-2.06508
 20
7.24532
 30
0.0
 10
-2.09876
 20
7.21163
 30
0.0
 10
-2.09876
 20
7.17007
 30
0.0
 10
-2.09876
 20
7.17007
 30
0.0
 10
-2.09876
 20
7.1285
 30
0.0
 10
-2.06508
 20
7.0948
 30
0.0
 10
-2.0235
 20
7.0948
 30
0.0
 10
-2.0235
 20
7.0948
 30
0.0
 10
-2.00587
 20
7.0948
 30
0.0
 10
-1.98967
 20
7.10087
 30
0.0
 10
-1.97684
 20
7.11102
 30
0.0
 10
-1.97684
 20
7.11102
 30
0.0
 10
-1.96401
 20
7.10087
 30
0.0
 10
-1.94781
 20
7.0948
 30
0.0
 10
-1.93017
 20
7.0948
 30
0.0
 10
-1.93017
 20
7.0948
 30
0.0
 10
-1.91254
 20
7.0948
 30
0.0
 10
-1.89635
 20
7.10086
 30
0.0
 10
-1.88351
 20
7.11102
 30
0.0
 10
-1.88351
 20
7.11102
 30
0.0
 10
-1.87068
 20
7.10087
 30
0.0
 10
-1.85447
 20
7.0948
 30
0.0
 10
-1.83685
 20
7.0948
 30
0.0
 10
-1.83685
 20
7.0948
 30
0.0
 10
-1.81921
 20
7.0948
 30
0.0
 10
-1.80301
 20
7.10086
 30
0.0
 10
-1.79018
 20
7.11102
 30
0.0
 10
-1.79018
 20
7.11102
 30
0.0
 10
-1.77736
 20
7.10087
 30
0.0
 10
-1.76115
 20
7.0948
 30
0.0
 10
-1.74351
 20
7.0948
 30
0.0
 10
-1.74351
 20
7.0948
 30
0.0
 10
-1.70194
 20
7.0948
 30
0.0
 10
-1.66825
 20
7.1285
 30
0.0
 10
-1.66825
 20
7.17007
 30
0.0
 10
-1.66825
 20
7.17007
 30
0.0
 10
-1.66825
 20
7.21163
 30
0.0
 10
-1.70194
 20
7.24532
 30
0.0
 10
-1.74351
 20
7.24532
 30
0.0
  0
SPLINE
  5
B1
330
1F
100
AcDbEntity
  8
Warstwa 1
 62
     7
100
AcDbSpline
210
0.0
220
0.0
230
1.0
 70
    11
 71
     3
 72
    28
 73
    24
 74
     0
 42
0.0000000001
 43
0.0000000001
 40
0.0
 40
0.0
 40
0.0
 40
0.0
 40
0.1666666666666667
 40
0.1666666666666667
 40
0.1666666666666667
 40
0.1666666666666667
 40
0.3333333333333333
 40
0.3333333333333333
 40
0.3333333333333333
 40
0.3333333333333333
 40
0.5
 40
0.5
 40
0.5
 40
0.5
 40
0.6666666666666666
 40
0.6666666666666666
 40
0.6666666666666666
 40
0.6666666666666666
 40
0.8333333333333333
 40
0.8333333333333333
 40
0.8333333333333333
 40
0.8333333333333333
 40
1.0
 40
1.0
 40
1.0
 40
1.0
 10
-1.98915
 20
7.12332
 30
0.0
 10
-1.99874
 20
7.11632
 30
0.0
 10
-2.01073
 20
7.11205
 30
0.0
 10
-2.0235
 20
7.11205
 30
0.0
 10
-2.0235
 20
7.11205
 30
0.0
 10
-2.05557
 20
7.11205
 30
0.0
 10
-2.08152
 20
7.138
 30
0.0
 10
-2.08152
 20
7.17007
 30
0.0
 10
-2.08152
 20
7.17007
 30
0.0
 10
-2.08152
 20
7.20213
 30
0.0
 10
-2.05557
 20
7.22809
 30
0.0
 10
-2.0235
 20
7.22809
 30
0.0
 10
-2.0235
 20
7.22809
 30
0.0
 10
-2.01073
 20
7.22809
 30
0.0
 10
-1.99876
 20
7.22381
 30
0.0
 10
-1.98915
 20
7.21682
 30
0.0
 10
-1.98915
 20
7.21682
 30
0.0
 10
-1.99935
 20
7.20397
 30
0.0
 10
-2.00544
 20
7.18775
 30
0.0
 10
-2.00544
 20
7.17007
 30
0.0
 10
-2.00544
 20
7.17007
 30
0.0
 10
-2.00544
 20
7.15246
 30
0.0
 10
-1.99929
 20
7.13613
 30
0.0
 10
-1.98915
 20
7.12332
 30
0.0
  0
SPLINE
  5
B2
330
1F
100
AcDbEntity
  8
Warstwa 1
 62
     7
100
AcDbSpline
210
0.0
220
0.0
230
1.0
 70
    11
 71
     3
 72
    20
 73
    16
 74
     0
 42
0.0000000001
 43
0.0000000001
 40
0.0
 40
0.0
 40
0.0
 40
0.0
 40
0.25
 40
0.25
 40
0.25
 40
0.25
 40
0.5
 40
0.5
 40
0.5
 40
0.5
 40
0.75
 40
0.75
 40
0.75
 40
0.75
 40
1.0
 40
1.0
 40
1.0
 40
1.0
 10
-1.97684
 20
7.1356
 30
0.0
 10
-1.98398
 20
7.14524
 30
0.0
 10
-1.98819
 20
7.15715
 30
0.0
 10
-1.98819
 20
7.17007
 30
0.0
 10
-1.98819
 20
7.17007
 30
0.0
 10
-1.98819
 20
7.183
 30
0.0
 10
-1.98399
 20
7.19488
 30
0.0
 10
-1.97684
 20
7.20454
 30
0.0
 10
-1.97684
 20
7.20454
 30
0.0
 10
-1.96968
 20
7.19488
 30
0.0
 10
-1.96548
 20
7.183
 30
0.0
 10
-1.96548
 20
7.17007
 30
0.0
 10
-1.96548
 20
7.17007
 30
0.0
 10
-1.96548
 20
7.15715
 30
0.0
 10
-1.96969
 20
7.14524
 30
0.0
 10
-1.97684
 20
7.1356
 30
0.0
  0
SPLINE
  5
B3
330
1F
100
AcDbEntity
  8
Warstwa 1
 62
     7
100
AcDbSpline
210
0.0
220
0.0
230
1.0
 70
    11
 71
     3
 72
    36
 73
    32
 74
     0
 42
0.0000000001
 43
0.0000000001
 40
0.0
 40
0.0
 40
0.0
 40
0.0
 40
0.125
 40
0.125
 40
0.125
 40
0.125
 40
0.25
 40
0.25
 40
0.25
 40
0.25
 40
0.375
 40
0.375
 40
0.375
 40
0.375
 40
0.5
 40
0.5
 40
0.5
 40
0.5
 40
0.625
 40
0.625
 40
0.625
 40
0.625
 40
0.75
 40
0.75
 40
0.75
 40
0.75
 40
0.875
 40
0.875
 40
0.875
 40
0.875
 40
1.0
 40
1.0
 40
1.0
 40
1.0
 10
-1.89583
 20
7.12332
 30
0.0
 10
-1.90545
 20
7.11623
 30
0.0
 10
-1.91734
 20
7.11206
 30
0.0
 10
-1.93022
 20
7.11206
 30
0.0
 10
-1.93022
 20
7.11206
 30
0.0
 10
-1.94309
 20
7.11206
 30
0.0
 10
-1.9549
 20
7.11623
 30
0.0
 10
-1.96452
 20
7.12332
 30
0.0
 10
-1.96452
 20
7.12332
 30
0.0
 10
-1.95438
 20
7.13613
 30
0.0
 10
-1.94825
 20
7.15246
 30
0.0
 10
-1.94825
 20
7.17007
 30
0.0
 10
-1.94825
 20
7.17007
 30
0.0
 10
-1.94825
 20
7.18775
 30
0.0
 10
-1.95432
 20
7.20397
 30
0.0
 10
-1.96452
 20
7.21682
 30
0.0
 10
-1.96452
 20
7.21682
 30
0.0
 10
-1.9549
 20
7.2239
 30
0.0
 10
-1.94309
 20
7.22806
 30
0.0
 10
-1.93022
 20
7.22806
 30
0.0
 10
-1.93022
 20
7.22806
 30
0.0
 10
-1.91734
 20
7.22806
 30
0.0
 10
-1.90545
 20
7.2239
 30
0.0
 10
-1.89583
 20
7.21682
 30
0.0
 10
-1.89583
 20
7.21682
 30
0.0
 10
-1.90603
 20
7.20397
 30
0.0
 10
-1.9121
 20
7.18775
 30
0.0
 10
-1.9121
 20
7.17007
 30
0.0
 10
-1.9121
 20
7.17007
 30
0.0
 10
-1.9121
 20
7.15246
 30
0.0
 10
-1.90595
 20
7.13613
 30
0.0
 10
-1.89583
 20
7.12332
 30
0.0
  0
SPLINE
  5
B4
330
1F
100
AcDbEntity
  8
Warstwa 1
 62
     7
100
AcDbSpline
210
0.0
220
0.0
230
1.0
 70
    11
 71
     3
 72
    20
 73
    16
 74
     0
 42
0.0000000001
 43
0.0000000001
 40
0.0
 40
0.0
 40
0.0
 40
0.0
 40
0.25
 40
0.25
 40
0.25
 40
0.25
 40
0.5
 40
0.5
 40
0.5
 40
0.5
 40
0.75
 40
0.75
 40
0.75
 40
0.75
 40
1.0
 40
1.0
 40
1.0
 40
1.0
 10
-1.88351
 20
7.1356
 30
0.0
 10
-1.89066
 20
7.14524
 30
0.0
 10
-1.89487
 20
7.15715
 30
0.0
 10
-1.89487
 20
7.17007
 30
0.0
 10
-1.89487
 20
7.17007
 30
0.0
 10
-1.89487
 20
7.183
 30
0.0
 10
-1.89067
 20
7.19488
 30
0.0
 10
-1.88351
 20
7.20454
 30
0.0
 10
-1.88351
 20
7.20454
 30
0.0
 10
-1.87636
 20
7.19488
 30
0.0
 10
-1.87216
 20
7.183
 30
0.0
 10
-1.87216
 20
7.17007
 30
0.0
 10
-1.87216
 20
7.17007
 30
0.0
 10
-1.87216
 20
7.15715
 30
0.0
 10
-1.87637
 20
7.14524
 30
0.0
 10
-1.88351
 20
7.1356
 30
0.0
  0
SPLINE
  5
B5
330
1F
100
AcDbEntity
  8
Warstwa 1
 62
     7
100
AcDbSpline
210
0.0
220
0.0
230
1.0
 70
    11
 71
     3
 72
    36
 73
    32
 74
     0
 42
0.0000000001
 43
0.0000000001
 40
0.0
 40
0.0
 40
0.0
 40
0.0
 40
0.125
 40
0.125
 40
0.125
 40
0.125
 40
0.25
 40
0.25
 40
0.25
 40
0.25
 40
0.375
 40
0.375
 40
0.375
 40
0.375
 40
0.5
 40
0.5
 40
0.5
 40
0.5
 40
0.625
 40
0.625
 40
0.625
 40
0.625
 40
0.75
 40
0.75
 40
0.75
 40
0.75
 40
0.875
 40
0.875
 40
0.875
 40
0.875
 40
1.0
 40
1.0
 40
1.0
 40
1.0
 10
-1.80249
 20
7.12332
 30
0.0
 10
-1.81212
 20
7.11623
 30
0.0
 10
-1.82402
 20
7.11206
 30
0.0
 10
-1.83688
 20
7.11206
 30
0.0
 10
-1.83688
 20
7.11206
 30
0.0
 10
-1.84975
 20
7.11206
 30
0.0
 10
-1.86157
 20
7.11623
 30
0.0
 10
-1.8712
 20
7.12332
 30
0.0
 10
-1.8712
 20
7.12332
 30
0.0
 10
-1.86106
 20
7.13613
 30
0.0
 10
-1.85493
 20
7.15246
 30
0.0
 10
-1.85493
 20
7.17007
 30
0.0
 10
-1.85493
 20
7.17007
 30
0.0
 10
-1.85493
 20
7.18775
 30
0.0
 10
-1.861
 20
7.20397
 30
0.0
 10
-1.8712
 20
7.21682
 30
0.0
 10
-1.8712
 20
7.21682
 30
0.0
 10
-1.86157
 20
7.2239
 30
0.0
 10
-1.84975
 20
7.22806
 30
0.0
 10
-1.83688
 20
7.22806
 30
0.0
 10
-1.83688
 20
7.22806
 30
0.0
 10
-1.82402
 20
7.22806
 30
0.0
 10
-1.81212
 20
7.2239
 30
0.0
 10
-1.80249
 20
7.21682
 30
0.0
 10
-1.80249
 20
7.21682
 30
0.0
 10
-1.8127
 20
7.20397
 30
0.0
 10
-1.81877
 20
7.18775
 30
0.0
 10
-1.81877
 20
7.17007
 30
0.0
 10
-1.81877
 20
7.17007
 30
0.0
 10
-1.81877
 20
7.15246
 30
0.0
 10
-1.81263
 20
7.13613
 30
0.0
 10
-1.80249
 20
7.12332
 30
0.0
  0
SPLINE
  5
B6
330
1F
100
AcDbEntity
  8
Warstwa 1
 62
     7
100
AcDbSpline
210
0.0
220
0.0
230
1.0
 70
    11
 71
     3
 72
    20
 73
    16
 74
     0
 42
0.0000000001
 43
0.0000000001
 40
0.0
 40
0.0
 40
0.0
 40
0.0
 40
0.25
 40
0.25
 40
0.25
 40
0.25
 40
0.5
 40
0.5
 40
0.5
 40
0.5
 40
0.75
 40
0.75
 40
0.75
 40
0.75
 40
1.0
 40
1.0
 40
1.0
 40
1.0
 10
-1.79018
 20
7.1356
 30
0.0
 10
-1.79732
 20
7.14524
 30
0.0
 10
-1.80153
 20
7.15715
 30
0.0
 10
-1.80153
 20
7.17007
 30
0.0
 10
-1.80153
 20
7.17007
 30
0.0
 10
-1.80153
 20
7.183
 30
0.0
 10
-1.79733
 20
7.19488
 30
0.0
 10
-1.79018
 20
7.20454
 30
0.0
 10
-1.79018
 20
7.20454
 30
0.0
 10
-1.78302
 20
7.19488
 30
0.0
 10
-1.77882
 20
7.183
 30
0.0
 10
-1.77882
 20
7.17007
 30
0.0
 10
-1.77882
 20
7.17007
 30
0.0
 10
-1.77882
 20
7.15715
 30
0.0
 10
-1.78304
 20
7.14524
 30
0.0
 10
-1.79018
 20
7.1356
 30
0.0
  0
SPLINE
  5
B7
330
1F
100
AcDbEntity
  8
Warstwa 1
 62
     7
100
AcDbSpline
210
0.0
220
0.0
230
1.0
 70
    11
 71
     3
 72
    28
 73
    24
 74
     0
 42
0.0000000001
 43
0.0000000001
 40
0.0
 40
0.0
 40
0.0
 40
0.0
 40
0.1666666666666667
 40
0.1666666666666667
 40
0.1666666666666667
 40
0.1666666666666667
 40
0.3333333333333333
 40
0.3333333333333333
 40
0.3333333333333333
 40
0.3333333333333333
 40
0.5
 40
0.5
 40
0.5
 40
0.5
 40
0.6666666666666666
 40
0.6666666666666666
 40
0.6666666666666666
 40
0.6666666666666666
 40
0.8333333333333333
 40
0.8333333333333333
 40
0.8333333333333333
 40
0.8333333333333333
 40
1.0
 40
1.0
 40
1.0
 40
1.0
 10
-1.74351
 20
7.11205
 30
0.0
 10
-1.7563
 20
7.11205
 30
0.0
 10
-1.76827
 20
7.11632
 30
0.0
 10
-1.77786
 20
7.12332
 30
0.0
 10
-1.77786
 20
7.12332
 30
0.0
 10
-1.76774
 20
7.13613
 30
0.0
 10
-1.76159
 20
7.15246
 30
0.0
 10
-1.76159
 20
7.17007
 30
0.0
 10
-1.76159
 20
7.17007
 30
0.0
 10
-1.76159
 20
7.18775
 30
0.0
 10
-1.76766
 20
7.20397
 30
0.0
 10
-1.77786
 20
7.21682
 30
0.0
 10
-1.77786
 20
7.21682
 30
0.0
 10
-1.76827
 20
7.22381
 30
0.0
 10
-1.7563
 20
7.22809
 30
0.0
 10
-1.74351
 20
7.22809
 30
0.0
 10
-1.74351
 20
7.22809
 30
0.0
 10
-1.71145
 20
7.22809
 30
0.0
 10
-1.6855
 20
7.20213
 30
0.0
 10
-1.6855
 20
7.17007
 30
0.0
 10
-1.6855
 20
7.17007
 30
0.0
 10
-1.6855
 20
7.138
 30
0.0
 10
-1.71145
 20
7.11205
 30
0.0
 10
-1.74351
 20
7.11205
 30
0.0
  0
SPLINE
  5
B8
330
1F
100
AcDbEntity
  8
Warstwa 1
 62
   250
100
AcDbSpline
210
0.0
220
0.0
230
1.0
 70
    11
 71
     3
 72
    48
 73
    44
 74
     0
 42
0.0000000001
 43
0.0000000001
 40
0.0
 40
0.0
 40
0.0
 40
0.0
 40
0.0909090909090909
 40
0.0909090909090909
 40
0.0909090909090909
 40
0.0909090909090909
 40
0.1818181818181818
 40
0.1818181818181818
 40
0.1818181818181818
 40
0.1818181818181818
 40
0.2727272727272727
 40
0.2727272727272727
 40
0.2727272727272727
 40
0.2727272727272727
 40
0.3636363636363636
 40
0.3636363636363636
 40
0.3636363636363636
 40
0.3636363636363636
 40
0.4545454545454546
 40
0.4545454545454546
 40
0.4545454545454546
 40
0.4545454545454546
 40
0.5454545454545455
 40
0.5454545454545455
 40
0.5454545454545455
 40
0.5454545454545455
 40
0.6363636363636365
 40
0.6363636363636365
 40
0.6363636363636365
 40
0.6363636363636365
 40
0.7272727272727274
 40
0.7272727272727274
 40
0.7272727272727274
 40
0.7272727272727274
 40
0.8181818181818183
 40
0.8181818181818183
 40
0.8181818181818183
 40
0.8181818181818183
 40
0.9090909090909093
 40
0.9090909090909093
 40
0.9090909090909093
 40
0.9090909090909093
 40
1.0
 40
1.0
 40
1.0
 40
1.0
 10
-1.6227
 20
8.32236
 30
0.0
 10
-1.6227
 20
8.32236
 30
0.0
 10
-1.47068
 20
8.32236
 30
0.0
 10
-1.47068
 20
8.32236
 30
0.0
 10
-1.47068
 20
8.32236
 30
0.0
 10
-1.43644
 20
8.32236
 30
0.0
 10
-1.41035
 20
8.31977
 30
0.0
 10
-1.39232
 20
8.3145
 30
0.0
 10
-1.39232
 20
8.3145
 30
0.0
 10
-1.36815
 20
8.3074
 30
0.0
 10
-1.34743
 20
8.29474
 30
0.0
 10
-1.33027
 20
8.27652
 30
0.0
 10
-1.33027
 20
8.27652
 30
0.0
 10
-1.313
 20
8.25839
 30
0.0
 10
-1.29986
 20
8.23614
 30
0.0
 10
-1.29085
 20
8.20986
 30
0.0
 10
-1.29085
 20
8.20986
 30
0.0
 10
-1.28193
 20
8.18349
 30
0.0
 10
-1.27742
 20
8.15107
 30
0.0
 10
-1.27742
 20
8.11242
 30
0.0
 10
-1.27742
 20
8.11242
 30
0.0
 10
-1.27742
 20
8.07856
 30
0.0
 10
-1.28164
 20
8.04931
 30
0.0
 10
-1.29008
 20
8.02475
 30
0.0
 10
-1.29008
 20
8.02475
 30
0.0
 10
-1.30034
 20
7.99483
 30
0.0
 10
-1.31502
 20
7.97057
 30
0.0
 10
-1.3342
 20
7.95205
 30
0.0
 10
-1.3342
 20
7.95205
 30
0.0
 10
-1.34858
 20
7.93796
 30
0.0
 10
-1.36805
 20
7.92702
 30
0.0
 10
-1.39261
 20
7.91916
 30
0.0
 10
-1.39261
 20
7.91916
 30
0.0
 10
-1.41093
 20
7.91331
 30
0.0
 10
-1.43548
 20
7.91043
 30
0.0
 10
-1.46627
 20
7.91043
 30
0.0
 10
-1.46627
 20
7.91043
 30
0.0
 10
-1.46627
 20
7.91043
 30
0.0
 10
-1.6227
 20
7.91043
 30
0.0
 10
-1.6227
 20
7.91043
 30
0.0
 10
-1.6227
 20
7.91043
 30
0.0
 10
-1.6227
 20
7.91043
 30
0.0
 10
-1.6227
 20
8.32236
 30
0.0
 10
-1.6227
 20
8.32236
 30
0.0
  0
SPLINE
  5
B9
330
1F
100
AcDbEntity
  8
Warstwa 1
 62
   250
100
AcDbSpline
210
0.0
220
0.0
230
1.0
 70
    11
 71
     3
 72
    48
 73
    44
 74
     0
 42
0.0000000001
 43
0.0000000001
 40
0.0
 40
0.0
 40
0.0
 40
0.0
 40
0.0909090909090909
 40
0.0909090909090909
 40
0.0909090909090909
 40
0.0909090909090909
 40
0.1818181818181818
 40
0.1818181818181818
 40
0.1818181818181818
 40
0.1818181818181818
 40
0.2727272727272727
 40
0.2727272727272727
 40
0.2727272727272727
 40
0.2727272727272727
 40
0.3636363636363636
 40
0.3636363636363636
 40
0.3636363636363636
 40
0.3636363636363636
 40
0.4545454545454546
 40
0.4545454545454546
 40
0.4545454545454546
 40
0.4545454545454546
 40
0.5454545454545455
 40
0.5454545454545455
 40
0.5454545454545455
 40
0.5454545454545455
 40
0.6363636363636365
 40
0.6363636363636365
 40
0.6363636363636365
 40
0.6363636363636365
 40
0.7272727272727274
 40
0.7272727272727274
 40
0.7272727272727274
 40
0.7272727272727274
 40
0.8181818181818183
 40
0.8181818181818183
 40
0.8181818181818183
 40
0.8181818181818183
 40
0.9090909090909093
 40
0.9090909090909093
 40
0.9090909090909093
 40
0.9090909090909093
 40
1.0
 40
1.0
 40
1.0
 40
1.0
 10
-1.53954
 20
8.25264
 30
0.0
 10
-1.53954
 20
8.25264
 30
0.0
 10
-1.53954
 20
7.97987
 30
0.0
 10
-1.53954
 20
7.97987
 30
0.0
 10
-1.53954
 20
7.97987
 30
0.0
 10
-1.53954
 20
7.97987
 30
0.0
 10
-1.47749
 20
7.97987
 30
0.0
 10
-1.47749
 20
7.97987
 30
0.0
 10
-1.47749
 20
7.97987
 30
0.0
 10
-1.45428
 20
7.97987
 30
0.0
 10
-1.43749
 20
7.98112
 30
0.0
 10
-1.42713
 20
7.9838
 30
0.0
 10
-1.42713
 20
7.9838
 30
0.0
 10
-1.41371
 20
7.98716
 30
0.0
 10
-1.40249
 20
7.99282
 30
0.0
 10
-1.39357
 20
8.00087
 30
0.0
 10
-1.39357
 20
8.00087
 30
0.0
 10
-1.38465
 20
8.00893
 30
0.0
 10
-1.37745
 20
8.02226
 30
0.0
 10
-1.37179
 20
8.04068
 30
0.0
 10
-1.37179
 20
8.04068
 30
0.0
 10
-1.36623
 20
8.05909
 30
0.0
 10
-1.36335
 20
8.08431
 30
0.0
 10
-1.36335
 20
8.11616
 30
0.0
 10
-1.36335
 20
8.11616
 30
0.0
 10
-1.36335
 20
8.148
 30
0.0
 10
-1.36623
 20
8.17236
 30
0.0
 10
-1.37179
 20
8.18943
 30
0.0
 10
-1.37179
 20
8.18943
 30
0.0
 10
-1.37745
 20
8.2065
 30
0.0
 10
-1.38532
 20
8.21984
 30
0.0
 10
-1.39539
 20
8.22933
 30
0.0
 10
-1.39539
 20
8.22933
 30
0.0
 10
-1.40555
 20
8.23892
 30
0.0
 10
-1.41841
 20
8.24535
 30
0.0
 10
-1.43394
 20
8.2487
 30
0.0
 10
-1.43394
 20
8.2487
 30
0.0
 10
-1.44555
 20
8.25139
 30
0.0
 10
-1.46828
 20
8.25264
 30
0.0
 10
-1.50223
 20
8.25264
 30
0.0
 10
-1.50223
 20
8.25264
 30
0.0
 10
-1.50223
 20
8.25264
 30
0.0
 10
-1.53954
 20
8.25264
 30
0.0
 10
-1.53954
 20
8.25264
 30
0.0
  0
SPLINE
  5
BA
330
1F
100
AcDbEntity
  8
Warstwa 1
 62
   250
100
AcDbSpline
210
0.0
220
0.0
230
1.0
 70
    11
 71
     3
 72
    28
 73
    24
 74
     0
 42
0.0000000001
 43
0.0000000001
 40
0.0
 40
0.0
 40
0.0
 40
0.0
 40
0.1666666666666667
 40
0.1666666666666667
 40
0.1666666666666667
 40
0.1666666666666667
 40
0.3333333333333333
 40
0.3333333333333333
 40
0.3333333333333333
 40
0.3333333333333333
 40
0.5
 40
0.5
 40
0.5
 40
0.5
 40
0.6666666666666666
 40
0.6666666666666666
 40
0.6666666666666666
 40
0.6666666666666666
 40
0.8333333333333333
 40
0.8333333333333333
 40
0.8333333333333333
 40
0.8333333333333333
 40
1.0
 40
1.0
 40
1.0
 40
1.0
 10
-1.20462
 20
7.91043
 30
0.0
 10
-1.20462
 20
7.91043
 30
0.0
 10
-1.20462
 20
8.31901
 30
0.0
 10
-1.20462
 20
8.31901
 30
0.0
 10
-1.20462
 20
8.31901
 30
0.0
 10
-1.20462
 20
8.31901
 30
0.0
 10
-1.12147
 20
8.31901
 30
0.0
 10
-1.12147
 20
8.31901
 30
0.0
 10
-1.12147
 20
8.31901
 30
0.0
 10
-1.12147
 20
8.31901
 30
0.0
 10
-1.12147
 20
7.97987
 30
0.0
 10
-1.12147
 20
7.97987
 30
0.0
 10
-1.12147
 20
7.97987
 30
0.0
 10
-1.12147
 20
7.97987
 30
0.0
 10
-0.91469
 20
7.97987
 30
0.0
 10
-0.91469
 20
7.97987
 30
0.0
 10
-0.91469
 20
7.97987
 30
0.0
 10
-0.91469
 20
7.97987
 30
0.0
 10
-0.91469
 20
7.91043
 30
0.0
 10
-0.91469
 20
7.91043
 30
0.0
 10
-0.91469
 20
7.91043
 30
0.0
 10
-0.91469
 20
7.91043
 30
0.0
 10
-1.20462
 20
7.91043
 30
0.0
 10
-1.20462
 20
7.91043
 30
0.0
  0
SPLINE
  5
BB
330
1F
100
AcDbEntity
  8
Warstwa 1
 62
   250
100
AcDbSpline
210
0.0
220
0.0
230
1.0
 70
    11
 71
     3
 72
    36
 73
    32
 74
     0
 42
0.0000000001
 43
0.0000000001
 40
0.0
 40
0.0
 40
0.0
 40
0.0
 40
0.125
 40
0.125
 40
0.125
 40
0.125
 40
0.25
 40
0.25
 40
0.25
 40
0.25
 40
0.375
 40
0.375
 40
0.375
 40
0.375
 40
0.5
 40
0.5
 40
0.5
 40
0.5
 40
0.625
 40
0.625
 40
0.625
 40
0.625
 40
0.75
 40
0.75
 40
0.75
 40
0.75
 40
0.875
 40
0.875
 40
0.875
 40
0.875
 40
1.0
 40
1.0
 40
1.0
 40
1.0
 10
-0.48386
 20
7.91043
 30
0.0
 10
-0.48386
 20
7.91043
 30
0.0
 10
-0.5744
 20
7.91043
 30
0.0
 10
-0.5744
 20
7.91043
 30
0.0
 10
-0.5744
 20
7.91043
 30
0.0
 10
-0.5744
 20
7.91043
 30
0.0
 10
-0.61036
 20
8.00404
 30
0.0
 10
-0.61036
 20
8.00404
 30
0.0
 10
-0.61036
 20
8.00404
 30
0.0
 10
-0.61036
 20
8.00404
 30
0.0
 10
-0.77504
 20
8.00404
 30
0.0
 10
-0.77504
 20
8.00404
 30
0.0
 10
-0.77504
 20
8.00404
 30
0.0
 10
-0.77504
 20
8.00404
 30
0.0
 10
-0.80899
 20
7.91043
 30
0.0
 10
-0.80899
 20
7.91043
 30
0.0
 10
-0.80899
 20
7.91043
 30
0.0
 10
-0.80899
 20
7.91043
 30
0.0
 10
-0.89723
 20
7.91043
 30
0.0
 10
-0.89723
 20
7.91043
 30
0.0
 10
-0.89723
 20
7.91043
 30
0.0
 10
-0.89723
 20
7.91043
 30
0.0
 10
-0.73677
 20
8.32236
 30
0.0
 10
-0.73677
 20
8.32236
 30
0.0
 10
-0.73677
 20
8.32236
 30
0.0
 10
-0.73677
 20
8.32236
 30
0.0
 10
-0.64882
 20
8.32236
 30
0.0
 10
-0.64882
 20
8.32236
 30
0.0
 10
-0.64882
 20
8.32236
 30
0.0
 10
-0.64882
 20
8.32236
 30
0.0
 10
-0.48386
 20
7.91043
 30
0.0
 10
-0.48386
 20
7.91043
 30
0.0
  0
SPLINE
  5
BC
330
1F
100
AcDbEntity
  8
Warstwa 1
 62
   250
100
AcDbSpline
210
0.0
220
0.0
230
1.0
 70
    11
 71
     3
 72
    16
 73
    12
 74
     0
 42
0.0000000001
 43
0.0000000001
 40
0.0
 40
0.0
 40
0.0
 40
0.0
 40
0.3333333333333333
 40
0.3333333333333333
 40
0.3333333333333333
 40
0.3333333333333333
 40
0.6666666666666666
 40
0.6666666666666666
 40
0.6666666666666666
 40
0.6666666666666666
 40
1.0
 40
1.0
 40
1.0
 40
1.0
 10
-0.63703
 20
8.07338
 30
0.0
 10
-0.63703
 20
8.07338
 30
0.0
 10
-0.6938
 20
8.22626
 30
0.0
 10
-0.6938
 20
8.22626
 30
0.0
 10
-0.6938
 20
8.22626
 30
0.0
 10
-0.6938
 20
8.22626
 30
0.0
 10
-0.74943
 20
8.07338
 30
0.0
 10
-0.74943
 20
8.07338
 30
0.0
 10
-0.74943
 20
8.07338
 30
0.0
 10
-0.74943
 20
8.07338
 30
0.0
 10
-0.63703
 20
8.07338
 30
0.0
 10
-0.63703
 20
8.07338
 30
0.0
  0
ENDSEC
  0
SECTION
  2
OBJECTS
  0
DICTIONARY
  5
C
330
0
100
AcDbDictionary
281
     1
  3
ACAD_GROUP
350
D
  3
ACAD_LAYOUT
350
1A
  3
ACAD_MLEADERSTYLE
350
BE
  3
ACAD_MLINESTYLE
350
17
  3
ACAD_PLOTSETTINGS
350
19
  3
ACAD_PLOTSTYLENAME
350
E
  3
ACAD_SCALELIST
350
3B
  3
ACAD_TABLESTYLE
350
BD
  3
ACAD_VISUALSTYLE
350
2A
  0
DICTIONARY
  5
D
102
{ACAD_REACTORS
330
C
102
}
330
C
100
AcDbDictionary
281
     1
  0
DICTIONARY
  5
1A
102
{ACAD_REACTORS
330
C
102
}
330
C
100
AcDbDictionary
281
     1
  3
Layout1
350
1E
  3
Layout2
350
26
  3
Model
350
22
  0
DICTIONARY
  5
BE
102
{ACAD_REACTORS
330
C
102
}
330
C
100
AcDbDictionary
281
     1
  0
DICTIONARY
  5
17
102
{ACAD_REACTORS
330
C
102
}
330
C
100
AcDbDictionary
281
     1
  3
Standard
350
18
  0
DICTIONARY
  5
19
102
{ACAD_REACTORS
330
C
102
}
330
C
100
AcDbDictionary
281
     1
  0
ACDBDICTIONARYWDFLT
  5
E
102
{ACAD_REACTORS
330
C
102
}
330
C
100
AcDbDictionary
281
     1
  3
Normal
350
F
100
AcDbDictionaryWithDefault
340
F
  0
DICTIONARY
  5
3B
102
{ACAD_REACTORS
330
C
102
}
330
C
100
AcDbDictionary
281
     1
  3
A0
350
3C
  3
A1
350
3D
  3
A2
350
3E
  3
A3
350
3F
  3
A4
350
40
  3
A5
350
41
  3
A6
350
42
  3
A7
350
43
  3
A8
350
44
  3
A9
350
45
  3
B0
350
46
  3
B1
350
47
  3
B2
350
48
  3
B3
350
49
  3
B4
350
4A
  3
B5
350
4B
  3
B6
350
4C
  3
B7
350
4D
  3
B8
350
4E
  3
B9
350
4F
  3
C0
350
50
  3
C1
350
51
  3
C2
350
52
  3
C3
350
53
  3
C4
350
54
  3
C5
350
55
  3
C6
350
56
  3
C7
350
57
  3
C8
350
58
  3
C9
350
59
  3
D0
350
5A
  3
D1
350
5B
  3
D2
350
5C
  0
DICTIONARY
  5
BD
102
{ACAD_REACTORS
330
C
102
}
330
C
100
AcDbDictionary
281
     1
  0
DICTIONARY
  5
2A
102
{ACAD_REACTORS
330
C
102
}
330
C
100
AcDbDictionary
281
     1
  3
2dWireframe
350
2F
  3
3D Hidden
350
31
  3
3dWireframe
350
30
  3
Basic
350
32
  3
Brighten
350
36
  3
ColorChange
350
3A
  3
Conceptual
350
34
  3
Dim
350
35
  3
Facepattern
350
39
  3
Flat
350
2B
  3
FlatWithEdges
350
2C
  3
Gouraud
350
2D
  3
GouraudWithEdges
350
2E
  3
Linepattern
350
38
  3
Realistic
350
33
  3
Thicken
350
37
  0
LAYOUT
  5
1E
102
{ACAD_REACTORS
330
1A
102
}
330
1A
100
AcDbPlotSettings
  1

  2
none_device
  4

  6

 40
0.0
 41
0.0
 42
0.0
 43
0.0
 44
0.0
 45
0.0
 46
0.0
 47
0.0
 48
0.0
 49
0.0
140
0.0
141
0.0
142
1.0
143
1.0
 70
   688
 72
     0
 73
     0
 74
     5
  7

 75
    16
 76
     0
 77
     2
 78
   300
147
1.0
148
0.0
149
0.0
100
AcDbLayout
  1
Layout1
 70
     1
 71
     1
 10
0.0
 20
0.0
 11
12.0
 21
9.0
 12
0.0
 22
0.0
 32
0.0
 14
1.000000000000000E+20
 24
1.000000000000000E+20
 34
1.000000000000000E+20
 15
-1.000000000000000E+20
 25
-1.000000000000000E+20
 35
-1.000000000000000E+20
146
0.0
 13
0.0
 23
0.0
 33
0.0
 16
1.0
 26
0.0
 36
0.0
 17
0.0
 27
1.0
 37
0.0
 76
     0
330
1B
  0
LAYOUT
  5
26
102
{ACAD_REACTORS
330
1A
102
}
330
1A
100
AcDbPlotSettings
  1

  2
none_device
  4

  6

 40
0.0
 41
0.0
 42
0.0
 43
0.0
 44
0.0
 45
0.0
 46
0.0
 47
0.0
 48
0.0
 49
0.0
140
0.0
141
0.0
142
1.0
143
1.0
 70
   688
 72
     0
 73
     0
 74
     5
  7

 75
    16
 76
     0
 77
     2
 78
   300
147
1.0
148
0.0
149
0.0
100
AcDbLayout
  1
Layout2
 70
     1
 71
     2
 10
0.0
 20
0.0
 11
0.0
 21
0.0
 12
0.0
 22
0.0
 32
0.0
 14
0.0
 24
0.0
 34
0.0
 15
0.0
 25
0.0
 35
0.0
146
0.0
 13
0.0
 23
0.0
 33
0.0
 16
1.0
 26
0.0
 36
0.0
 17
0.0
 27
1.0
 37
0.0
 76
     0
330
23
  0
LAYOUT
  5
22
102
{ACAD_REACTORS
330
1A
102
}
330
1A
100
AcDbPlotSettings
  1

  2
none_device
  4

  6

 40
0.0
 41
0.0
 42
0.0
 43
0.0
 44
0.0
 45
0.0
 46
0.0
 47
0.0
 48
0.0
 49
0.0
140
0.0
141
0.0
142
1.0
143
1.0
 70
  1712
 72
     0
 73
     0
 74
     0
  7

 75
     0
 76
     0
 77
     2
 78
   300
147
1.0
148
0.0
149
0.0
100
AcDbLayout
  1
Model
 70
     1
 71
     0
 10
0.0
 20
0.0
 11
12.0
 21
9.0
 12
0.0
 22
0.0
 32
0.0
 14
-6.52841
 24
2.82071
 34
0.0
 15
4.47159
 25
13.32071
 35
0.0
146
0.0
 13
0.0
 23
0.0
 33
0.0
 16
1.0
 26
0.0
 36
0.0
 17
0.0
 27
1.0
 37
0.0
 76
     0
330
1F
331
29
  0
MLINESTYLE
  5
18
102
{ACAD_REACTORS
330
17
102
}
330
17
100
AcDbMlineStyle
  2
Standard
 70
     0
  3

 62
   256
 51
90.0
 52
90.0
 71
     2
 49
0.5
 62
   256
  6
BYLAYER
 49
-0.5
 62
   256
  6
BYLAYER
  0
ACDBPLACEHOLDER
  5
F
102
{ACAD_REACTORS
330
E
102
}
330
E
  0
SCALE
  5
3C
102
{ACAD_REACTORS
330
3B
102
}
330
3B
100
AcDbScale
 70
     0
300
1:1
140
1.0
141
1.0
290
     1
  0
SCALE
  5
3D
102
{ACAD_REACTORS
330
3B
102
}
330
3B
100
AcDbScale
 70
     0
300
1:2
140
1.0
141
2.0
290
     0
  0
SCALE
  5
3E
102
{ACAD_REACTORS
330
3B
102
}
330
3B
100
AcDbScale
 70
     0
300
1:4
140
1.0
141
4.0
290
     0
  0
SCALE
  5
3F
102
{ACAD_REACTORS
330
3B
102
}
330
3B
100
AcDbScale
 70
     0
300
1:5
140
1.0
141
5.0
290
     0
  0
SCALE
  5
40
102
{ACAD_REACTORS
330
3B
102
}
330
3B
100
AcDbScale
 70
     0
300
1:8
140
1.0
141
8.0
290
     0
  0
SCALE
  5
41
102
{ACAD_REACTORS
330
3B
102
}
330
3B
100
AcDbScale
 70
     0
300
1:10
140
1.0
141
10.0
290
     0
  0
SCALE
  5
42
102
{ACAD_REACTORS
330
3B
102
}
330
3B
100
AcDbScale
 70
     0
300
1:16
140
1.0
141
16.0
290
     0
  0
SCALE
  5
43
102
{ACAD_REACTORS
330
3B
102
}
330
3B
100
AcDbScale
 70
     0
300
1:20
140
1.0
141
20.0
290
     0
  0
SCALE
  5
44
102
{ACAD_REACTORS
330
3B
102
}
330
3B
100
AcDbScale
 70
     0
300
1:30
140
1.0
141
30.0
290
     0
  0
SCALE
  5
45
102
{ACAD_REACTORS
330
3B
102
}
330
3B
100
AcDbScale
 70
     0
300
1:40
140
1.0
141
40.0
290
     0
  0
SCALE
  5
46
102
{ACAD_REACTORS
330
3B
102
}
330
3B
100
AcDbScale
 70
     0
300
1:50
140
1.0
141
50.0
290
     0
  0
SCALE
  5
47
102
{ACAD_REACTORS
330
3B
102
}
330
3B
100
AcDbScale
 70
     0
300
1:100
140
1.0
141
100.0
290
     0
  0
SCALE
  5
48
102
{ACAD_REACTORS
330
3B
102
}
330
3B
100
AcDbScale
 70
     0
300
2:1
140
2.0
141
1.0
290
     0
  0
SCALE
  5
49
102
{ACAD_REACTORS
330
3B
102
}
330
3B
100
AcDbScale
 70
     0
300
4:1
140
4.0
141
1.0
290
     0
  0
SCALE
  5
4A
102
{ACAD_REACTORS
330
3B
102
}
330
3B
100
AcDbScale
 70
     0
300
8:1
140
8.0
141
1.0
290
     0
  0
SCALE
  5
4B
102
{ACAD_REACTORS
330
3B
102
}
330
3B
100
AcDbScale
 70
     0
300
10:1
140
10.0
141
1.0
290
     0
  0
SCALE
  5
4C
102
{ACAD_REACTORS
330
3B
102
}
330
3B
100
AcDbScale
 70
     0
300
100:1
140
100.0
141
1.0
290
     0
  0
SCALE
  5
4D
102
{ACAD_REACTORS
330
3B
102
}
330
3B
100
AcDbScale
 70
     0
300
1/128" = 1'-0"
140
0.0078125
141
12.0
290
     0
  0
SCALE
  5
4E
102
{ACAD_REACTORS
330
3B
102
}
330
3B
100
AcDbScale
 70
     0
300
1/64" = 1'-0"
140
0.015625
141
12.0
290
     0
  0
SCALE
  5
4F
102
{ACAD_REACTORS
330
3B
102
}
330
3B
100
AcDbScale
 70
     0
300
1/32" = 1'-0"
140
0.03125
141
12.0
290
     0
  0
SCALE
  5
50
102
{ACAD_REACTORS
330
3B
102
}
330
3B
100
AcDbScale
 70
     0
300
1/16" = 1'-0"
140
0.0625
141
12.0
290
     0
  0
SCALE
  5
51
102
{ACAD_REACTORS
330
3B
102
}
330
3B
100
AcDbScale
 70
     0
300
3/32" = 1'-0"
140
0.09375
141
12.0
290
     0
  0
SCALE
  5
52
102
{ACAD_REACTORS
330
3B
102
}
330
3B
100
AcDbScale
 70
     0
300
1/8" = 1'-0"
140
0.125
141
12.0
290
     0
  0
SCALE
  5
53
102
{ACAD_REACTORS
330
3B
102
}
330
3B
100
AcDbScale
 70
     0
300
3/16" = 1'-0"
140
0.1875
141
12.0
290
     0
  0
SCALE
  5
54
102
{ACAD_REACTORS
330
3B
102
}
330
3B
100
AcDbScale
 70
     0
300
1/4" = 1'-0"
140
0.25
141
12.0
290
     0
  0
SCALE
  5
55
102
{ACAD_REACTORS
330
3B
102
}
330
3B
100
AcDbScale
 70
     0
300
3/8" = 1'-0"
140
0.375
141
12.0
290
     0
  0
SCALE
  5
56
102
{ACAD_REACTORS
330
3B
102
}
330
3B
100
AcDbScale
 70
     0
300
1/2" = 1'-0"
140
0.5
141
12.0
290
     0
  0
SCALE
  5
57
102
{ACAD_REACTORS
330
3B
102
}
330
3B
100
AcDbScale
 70
     0
300
3/4" = 1'-0"
140
0.75
141
12.0
290
     0
  0
SCALE
  5
58
102
{ACAD_REACTORS
330
3B
102
}
330
3B
100
AcDbScale
 70
     0
300
1" = 1'-0"
140
1.0
141
12.0
290
     0
  0
SCALE
  5
59
102
{ACAD_REACTORS
330
3B
102
}
330
3B
100
AcDbScale
 70
     0
300
1-1/2" = 1'-0"
140
1.5
141
12.0
290
     0
  0
SCALE
  5
5A
102
{ACAD_REACTORS
330
3B
102
}
330
3B
100
AcDbScale
 70
     0
300
3" = 1'-0"
140
3.0
141
12.0
290
     0
  0
SCALE
  5
5B
102
{ACAD_REACTORS
330
3B
102
}
330
3B
100
AcDbScale
 70
     0
300
6" = 1'-0"
140
6.0
141
12.0
290
     0
  0
SCALE
  5
5C
102
{ACAD_REACTORS
330
3B
102
}
330
3B
100
AcDbScale
 70
     0
300
1'-0" = 1'-0"
140
12.0
141
12.0
290
     0
  0
VISUALSTYLE
  5
2F
102
{ACAD_REACTORS
330
2A
102
}
330
2A
100
AcDbVisualStyle
  2
2dWireframe
 70
     4
 71
     0
 72
     2
 73
     0
 90
        0
 40
-0.6
 41
-30.0
 62
     5
 63
     7
421
 16777215
 74
     1
 91
        4
 64
     7
 65
   257
 75
     1
175
     1
 42
1.0
 92
        0
 66
   257
 43
1.0
 76
     1
 77
     6
 78
     2
 67
     7
 79
     5
170
     0
171
     0
290
     0
174
     0
 93
        1
 44
0.0
173
     0
291
     0
 45
0.0
  0
VISUALSTYLE
  5
31
102
{ACAD_REACTORS
330
2A
102
}
330
2A
100
AcDbVisualStyle
  2
3D Hidden
 70
     6
 71
     1
 72
     2
 73
     2
 90
        0
 40
-0.6
 41
-30.0
 62
     5
 63
     7
421
 16777215
 74
     2
 91
        2
 64
     7
 65
   257
 75
     2
175
     1
 42
40.0
 92
        0
 66
   257
 43
1.0
 76
     1
 77
     6
 78
     2
 67
     7
 79
     3
170
     0
171
     0
290
     0
174
     0
 93
        1
 44
0.0
173
     0
291
     0
 45
0.0
  0
VISUALSTYLE
  5
30
102
{ACAD_REACTORS
330
2A
102
}
330
2A
100
AcDbVisualStyle
  2
3dWireframe
 70
     5
 71
     0
 72
     2
 73
     0
 90
        0
 40
-0.6
 41
-30.0
 62
     5
 63
     7
421
 16777215
 74
     1
 91
        4
 64
     7
 65
   257
 75
     1
175
     1
 42
1.0
 92
        0
 66
   257
 43
1.0
 76
     1
 77
     6
 78
     2
 67
     7
 79
     5
170
     0
171
     0
290
     0
174
     0
 93
        1
 44
0.0
173
     0
291
     0
 45
0.0
  0
VISUALSTYLE
  5
32
102
{ACAD_REACTORS
330
2A
102
}
330
2A
100
AcDbVisualStyle
  2
Basic
 70
     7
 71
     1
 72
     0
 73
     1
 90
        0
 40
-0.6
 41
-30.0
 62
     5
 63
     7
421
 16777215
 74
     0
 91
        4
 64
     7
 65
   257
 75
     1
175
     1
 42
1.0
 92
        8
 66
     7
 43
1.0
 76
     1
 77
     6
 78
     2
 67
     7
 79
     5
170
     0
171
     0
290
     0
174
     0
 93
        1
 44
0.0
173
     0
291
     1
 45
0.0
  0
VISUALSTYLE
  5
36
102
{ACAD_REACTORS
330
2A
102
}
330
2A
100
AcDbVisualStyle
  2
Brighten
 70
    12
 71
     2
 72
     2
 73
     0
 90
        0
 40
-0.6
 41
-30.0
 62
     5
 63
     7
421
 16777215
 74
     1
 91
        4
 64
     7
 65
   257
 75
     1
175
     1
 42
1.0
 92
        8
 66
     7
 43
1.0
 76
     1
 77
     6
 78
     2
 67
     7
 79
     5
170
     0
171
     0
290
     0
174
     0
 93
        1
 44
50.0
173
     0
291
     1
 45
0.0
  0
VISUALSTYLE
  5
3A
102
{ACAD_REACTORS
330
2A
102
}
330
2A
100
AcDbVisualStyle
  2
ColorChange
 70
    16
 71
     2
 72
     2
 73
     3
 90
        0
 40
-0.6
 41
-30.0
 62
     5
 63
     8
421
  8421504
 74
     1
 91
        4
 64
     7
 65
   257
 75
     1
175
     1
 42
1.0
 92
        8
 66
     8
424
  8421504
 43
1.0
 76
     1
 77
     6
 78
     2
 67
     7
 79
     5
170
     0
171
     0
290
     0
174
     0
 93
        1
 44
0.0
173
     0
291
     1
 45
0.0
  0
VISUALSTYLE
  5
34
102
{ACAD_REACTORS
330
2A
102
}
330
2A
100
AcDbVisualStyle
  2
Conceptual
 70
     9
 71
     3
 72
     2
 73
     0
 90
        0
 40
-0.6
 41
-30.0
 62
     5
 63
     7
421
 16777215
 74
     2
 91
        2
 64
     7
 65
   257
 75
     1
175
     1
 42
40.0
 92
        8
 66
     7
 43
1.0
 76
     1
 77
     6
 78
     2
 67
     7
 79
     3
170
     0
171
     0
290
     0
174
     0
 93
        1
 44
0.0
173
     0
291
     0
 45
0.0
  0
VISUALSTYLE
  5
35
102
{ACAD_REACTORS
330
2A
102
}
330
2A
100
AcDbVisualStyle
  2
Dim
 70
    11
 71
     2
 72
     2
 73
     0
 90
        0
 40
-0.6
 41
-30.0
 62
     5
 63
     7
421
 16777215
 74
     1
 91
        4
 64
     7
 65
   257
 75
     1
175
     1
 42
1.0
 92
        8
 66
     7
 43
1.0
 76
     1
 77
     6
 78
     2
 67
     7
 79
     5
170
     0
171
     0
290
     0
174
     0
 93
        1
 44
-50.0
173
     0
291
     1
 45
0.0
  0
VISUALSTYLE
  5
39
102
{ACAD_REACTORS
330
2A
102
}
330
2A
100
AcDbVisualStyle
  2
Facepattern
 70
    15
 71
     2
 72
     2
 73
     0
 90
        0
 40
-0.6
 41
-30.0
 62
     5
 63
     7
421
 16777215
 74
     1
 91
        4
 64
     7
 65
   257
 75
     1
175
     1
 42
1.0
 92
        8
 66
     7
 43
1.0
 76
     1
 77
     6
 78
     2
 67
     7
 79
     5
170
     0
171
     0
290
     0
174
     0
 93
        1
 44
0.0
173
     0
291
     1
 45
0.0
  0
VISUALSTYLE
  5
2B
102
{ACAD_REACTORS
330
2A
102
}
330
2A
100
AcDbVisualStyle
  2
Flat
 70
     0
 71
     2
 72
     1
 73
     1
 90
        2
 40
-0.6
 41
30.0
 62
     5
 63
     7
421
 16777215
 74
     0
 91
        4
 64
     7
 65
   257
 75
     1
175
     1
 42
1.0
 92
        8
 66
     7
 43
1.0
 76
     1
 77
     6
 78
     2
 67
     7
 79
     5
170
     0
171
     0
290
     0
174
     0
 93
       13
 44
0.0
173
     0
291
     1
 45
0.0
  0
VISUALSTYLE
  5
2C
102
{ACAD_REACTORS
330
2A
102
}
330
2A
100
AcDbVisualStyle
  2
FlatWithEdges
 70
     1
 71
     2
 72
     1
 73
     1
 90
        2
 40
-0.6
 41
30.0
 62
     5
 63
     7
421
 16777215
 74
     1
 91
        4
 64
     7
 65
   257
 75
     1
175
     1
 42
1.0
 92
        0
 66
   257
 43
1.0
 76
     1
 77
     6
 78
     2
 67
     7
 79
     5
170
     0
171
     0
290
     0
174
     0
 93
       13
 44
0.0
173
     0
291
     1
 45
0.0
  0
VISUALSTYLE
  5
2D
102
{ACAD_REACTORS
330
2A
102
}
330
2A
100
AcDbVisualStyle
  2
Gouraud
 70
     2
 71
     2
 72
     2
 73
     1
 90
        2
 40
-0.6
 41
30.0
 62
     5
 63
     7
421
 16777215
 74
     0
 91
        4
 64
     7
 65
   257
 75
     1
175
     1
 42
1.0
 92
        0
 66
     7
 43
1.0
 76
     1
 77
     6
 78
     2
 67
     7
 79
     5
170
     0
171
     0
290
     0
174
     0
 93
       13
 44
0.0
173
     0
291
     1
 45
0.0
  0
VISUALSTYLE
  5
2E
102
{ACAD_REACTORS
330
2A
102
}
330
2A
100
AcDbVisualStyle
  2
GouraudWithEdges
 70
     3
 71
     2
 72
     2
 73
     1
 90
        2
 40
-0.6
 41
30.0
 62
     5
 63
     7
421
 16777215
 74
     1
 91
        4
 64
     7
 65
   257
 75
     1
175
     1
 42
1.0
 92
        0
 66
   257
 43
1.0
 76
     1
 77
     6
 78
     2
 67
     7
 79
     5
170
     0
171
     0
290
     0
174
     0
 93
       13
 44
0.0
173
     0
291
     1
 45
0.0
  0
VISUALSTYLE
  5
38
102
{ACAD_REACTORS
330
2A
102
}
330
2A
100
AcDbVisualStyle
  2
Linepattern
 70
    14
 71
     2
 72
     2
 73
     0
 90
        0
 40
-0.6
 41
-30.0
 62
     5
 63
     7
421
 16777215
 74
     1
 91
        4
 64
     7
 65
   257
 75
     7
175
     7
 42
1.0
 92
        8
 66
     7
 43
1.0
 76
     1
 77
     6
 78
     2
 67
     7
 79
     5
170
     0
171
     0
290
     0
174
     0
 93
        1
 44
0.0
173
     0
291
     1
 45
0.0
  0
VISUALSTYLE
  5
33
102
{ACAD_REACTORS
330
2A
102
}
330
2A
100
AcDbVisualStyle
  2
Realistic
 70
     8
 71
     2
 72
     2
 73
     0
 90
        0
 40
-0.6
 41
-30.0
 62
     5
 63
     7
421
 16777215
 74
     1
 91
        0
 64
     7
 65
   257
 75
     1
175
     1
 42
1.0
 92
        8
 66
     8
424
  7895160
 43
1.0
 76
     1
 77
     6
 78
     2
 67
     7
 79
     5
170
     0
171
     0
290
     0
174
     0
 93
       13
 44
0.0
173
     0
291
     0
 45
0.0
  0
VISUALSTYLE
  5
37
102
{ACAD_REACTORS
330
2A
102
}
330
2A
100
AcDbVisualStyle
  2
Thicken
 70
    13
 71
     2
 72
     2
 73
     0
 90
        0
 40
-0.6
 41
-30.0
 62
     5
 63
     7
421
 16777215
 74
     1
 91
        4
 64
     7
 65
   257
 75
     1
175
     1
 42
1.0
 92
       12
 66
     7
 43
1.0
 76
     1
 77
     6
 78
     2
 67
     7
 79
     5
170
     0
171
     0
290
     0
174
     0
 93
        1
 44
0.0
173
     0
291
     1
 45
0.0
  0
ENDSEC
  0
EOF
